Daniel Andriano - Lucky Smoke Rings Chords & Tabs

 

Lucky Smoke Rings Chords & Tabs

Daniel Andriano Chords & Tabs

Version: 1 Type: Tab 0 ratings
1 star 2 stars 3 stars 4 stars 5 stars
comments

Lucky Smoke Rings Tab

   
Lucky Smoke Rings
by Dan Andriano

Transcribed by Darby Edelen (edelen@ucsc.edu)

I've included one chord chart for acoustic and one for electric (seeing as
open chords tend to sound like mud on electric).  Use as you see fit.  Some
of the lyrics may be a bit off.  You HAVE to listen to a recording to get
the strumming down.  I didn't include palm muting in this version, seeing
as you can play it muted or not depending on which you prefer (just listen
to the recording for when to mute, or e-mail me) =P

Acoustic Chords:

optional = ()

       G           C           B           D
e|-----3-----|-----0-----|----(2)----|-----2-----|
B|-----0-----|-----1-----|----(4)----|-----3-----|
G|-----0-----|-----0-----|-----4-----|-----2-----|
D|-----0-----|-----2-----|-----4-----|-----0-----|
A|-----2-----|-----3-----|-----2-----|-----x-----|
E|-----3-----|-----x-----|-----x-----|-----x-----|


Electric Chords:

       G           C           B           D
e|-----------|-----------|-----------|-----------|
B|-----------|-----------|-----------|-----------|
G|-----------|-----5-----|-----4-----|-----7-----|
D|-----5-----|-----5-----|-----4-----|-----7-----|
A|-----5-----|-----3-----|-----2-----|-----5-----|
E|-----3-----|-----------|-----------|-----------|




Intro:

G C B C
G C D

Verse:
              G       C
  First whole day and look at me

       B           C
  Well I'm a total wreck

          G          C
  Bundled up and overheated

      B                   C
  You turned me into this mess
[ Tab from: http://www.guitartabs.cc/tabs/d/daniel_andriano/lucky_smoke_rings_tab.html ]
G                C             B       C
  I haven't gone blind yet but I can't see

         G            C
  I just stare into myself now

B         C          D
  Look at stupid old me


                   G                     C
Spitting out lucky smoke ring 'round the moon

  G                      C                  D
Maybe you're coming home soon but you won't see me no

(Repeat Intro)

          G         C
  Now I'm terrified

      B                  C
  And I've got this sick feeling inside

  G                C                   B      C
  Perfect end to a perfectly sickening week

G              C         B       C
  With nothing above the horizon

     G          C                B       C
  To help me forget about what's below


      D                   G                     C
So I'm Spitting out lucky smoke ring 'round the moon

  G                      C                  D
Maybe you're coming home soon but you won't see me no


Bridge:

e|--------------------------------------------|
B|--------------------------------------------|
G|---12---------------------------------------|    Play Twice
D|---x--(x6)----10---------9---------12-------|    x2
A|---10----------x-(x6)----x-(x6)----x--(x6)--|
E|---------------8---------7---------10-------|




      D                   G                     C
So I'm Spitting out lucky smoke ring 'round the moon

  G                      C                  D
Maybe you're coming home soon but you won't see me


End on G
Comments