Danger Danger - Bang Bang Chords & Tabs

 

Bang Bang Chords & Tabs

Danger Danger Chords & Tabs

Version: 2 Type: Bass Tab 0 ratings
1 star 2 stars 3 stars 4 stars 5 stars
comments

Bang Bang Bass Tab

   
Artist:  Danger Danger
Song:  Bang Bang
tabbed by:  Jake White
Comments:  Here, this is pretty straightforward... any questions contact me at Yonkel21@aol.com
Enjoy!

Intro / chorus

G---------------------------------|
D-------0------0-------------0----|
A----0------------0-------------0-|
E----------3---------2--3---------|

Verse

G--------------------------------------------------|
D--------------------------------------------------|
A---------------------------------5-4-2-0----------|
E--33333333--55555555--333333333----------55555555-|

Pre-chorus ("I know its silly...")
[ Tab from: http://www.guitartabs.cc/tabs/d/danger_danger/bang_bang_btab_ver_2.html ]
G-----------------------------------------|
D-----------------------------------------|
A-----0-2~--4-5---------------------------|
E---3-----------5~--3-2-000-222-333333333-|

Solo

G--------------------------------------|
D--------------------------------------|
A--222222222222222222222-0-2-4-5-4-0-2-|
E--------------------------------------|

Solo (cont'd)

G-----------------------------------------------------------|
D-----------------------------------------------------------|
A-2222222222222222222222--5-4-2-0---5-4-2-------------------|
E-----------------------------------------33333333-55555555-|
Comments