Danger - Somewhere Beyond Chords & Tabs

 

Somewhere Beyond Chords & Tabs

Danger Chords & Tabs

Version: 1 Type: Tab 0 ratings
1 star 2 stars 3 stars 4 stars 5 stars
comments

Somewhere Beyond Tab

   
                           SOMEWHERE BEYOND
                             By: Danger
                    From the album "KEEP OUT" 2004


Intro + chorus
E|-------------------------------|---------------------------------|
B|-------------------------------|---------------------------------|
G|---------7---------------------|---------------------------------|
D|-5---5-------5---8---5---8-7-5-|-8-------8---7---10---10-8-7-----|
A|-------------------------------|---------------------------------|
E|-------------------------------|---------------------------------|


Vers riff
E|---------------------------------|---------------------------------|
B|---------------------------------|---------------------------------|
G|---------------------------------|---------------------------------|
D|---------------------------------|---------------------4---4-/-5---|
A|-------------5-5-7-----------7---|---------------------5---5-/-7---|
E|-0---0---0-----------0---0-------|-0---0---0---0---0---------------|
   .   .   .           .   .         .   .   .   .   . 

E|---------------------------------|---------------------------------|
B|---------------------------------|---------------------------------|
G|---------------------------------|---------------------------------|
D|---------------------------------|------------------9-----7----5---|
A|-------------5-5-7-----------7---|-----------------10-----9----7---|
E|-0---0---0-----------0---0-------|-0---0---0---0-------------------|
   .   .   .           .   .         .   .   .   .


Bridge
E|---------------------------------|---------------------------------|
B|---------------------------------|---------------------------------|
G|---------------------------------|---------------------------------|
D|---------------------------------|---------10------9-------7-------|
A|-7-------7-------7-------9---10--|---------------------------------|
E|-----0-------0-------0-----------|-8---8-------8-------8-------8---|
       .       .       .             .   .       .       .       .

E|---------------------------------|---------------------------------|
B|---------------------------------|---------------------------------|
G|---------------------------------|---------------------------------|
D|---------7-------9-------10------|-9-------7-------5-------4-------|
A|-0---0-------0-------0--------0--|-----5-------5-------5-------5---|
E|---------------------------------|---------------------------------|
   .   .       .       .        .        .       .       .       .

Fill
E|---------------------------------|
B|---------------------------------|
G|---------------------------------|
D|-----2---4---5-------7---5---4---|
A|-3---------------5---------------|
E|---------------------------------|


Solo riff 1
E|---------------------------------|---------------------------------|
B|---------------------------------|---------------------------------|
G|---------------------------------|---------------------------------|
D|-------------2-------------------|-5-----------5-/-7---7-----------|
A|-------------2-------------------|-3-------3---3-/-5---5-----------|
E|-0---0---0---0-------------------|---------------------------------|
   .   .   .                                 .     
[ Tab from: http://www.guitartabs.cc/tabs/d/danger/somewhere_beyond_tab.html ]
E|---------------------------------|---------------------------------|
B|---------------------------------|---------------------------------|
G|---------------------------------|---------------------------------|
D|-------------2-------------------|---------------------------------|
A|-------------2-------------------|-5-----------5-/-7---7-----------|
E|-0---0---0---0-------------------|-3-------3---3-/-5---5-----------|
   .   .   .                                 .

Solo riff 2
E|---------------------------------|---------------------------------|
B|---------------------------------|---------------------------------|
G|---------------------------------|---------------------------------|
D|-------------5-------------------|-8-----------8-/-10--10----------|
A|-------------5-------------------|-6-------6---6-/-8---8-----------|
E|-3---3---3---3-------------------|---------------------------------|
   .   .   .                                 .

E|---------------------------------|---------------------------------|
B|---------------------------------|---------------------------------|
G|---------------------------------|---------------------------------|
D|-------------5-------------------|---------------------------------|
A|-------------5-------------------|-8-----------8-/-10--10----------|
E|-3---3---3---3-------------------|-6-------6---6-/-8---8-----------|
   .   .   .                                 .

Fill 2
E|---------------------------------|
B|---------------------------------|
G|---------------------------------|
D|---------------------------------|
A|-7-7-7-7-7-7-7-7-5-5-----3-3-----|
E|---------------------------------|
   . . . . . . . . . .     . .

Guitar melody:

  Em                                C
E|---------------------------------|---------------------------------|
B|-------------------8---7---------|---------------------8---7-------|
G|-----9---------------------9-----|-----9-----------------------9---|
D|-9-------------------------------|-9-------------------------------|
A|---------------------------------|---------------------------------|
E|---------------------------------|---------------------------------|


  B                                 D
E|---------------------------------|---------------------------------|
B|-------------------8---7---------|---------------------------------|
G|-----9---------------------9-----|-7-------------------------------|
D|-9-------------------------------|-----------------9-------7-------|
A|---------------------------------|---------------------------------|
E|---------------------------------|---------------------------------|


Solo riff 3
E|---------------------------------|---------------------------------|
B|---------------------------------|---------------------------------|
G|----------------8-----8-----8----|----------------5----3----2------|
D|-5----5----5----8-----8-----8----|-3----3----3----5----3----2------|
A|-5----5----5----6-----6-----6----|-3----3----3----3----1----0------|
E|-3----3----3---------------------|-1----1----1---------------------|


  After every chorus:               End of song:
E|---------------------------------|---------------------------------|
B|---------------------------------|---------------------------------|
G|-8-------------10----------------|---------------------------------|
D|-8-------------10----------------|-5-------5-------------------5---|
A|-6-------------8-----------------|-5-------5-------------------5---|
E|---------------------------------|-3-------3---3---3---3---3---3---|
                                                 .   .   .   .  

Riff order:
Intro  4x
Vers   2x
Bridge 2x
Chorus 4x
Vers   2x
Bridge 2x
Chorus 4x
Soloriff1 2x
Soloriff2 2x
Guitar melody 2x
Soloriff3 4x
Bridge 2x
Chorus 8x





Comments