Dandy Warhols - Nietzsche Chords & Tabs

 

Nietzsche Chords & Tabs

Dandy Warhols Chords & Tabs

Version: 3 Type: Tab 0 ratings
1 star 2 stars 3 stars 4 stars 5 stars
comments

Nietzsche Tab

   
Band: The Dandy Warhols
Song:Nietzsche
Subbmitted by: thom

indulge yourself.


Main riff:

          E             A             G              A
E ----------------------------------------------------------
H ----------------------------------------------------------
G ----------------------------------------------------------
D --2--2--2--2-2----7-7--7--7----5--5--5--5-5----7-7--7--7--
A --2--2--2--2-2----7-7--7--7----5--5--5--5-5----7-7--7--7--
E --0--0--0--0-0----5-5--5--5----3--3--3--3-3----5-5--5--5--


E A  	       G  A          E        A        G         A
I...   want a god...   who stays dead... not plays dead

E A         G  A        E         A     G    A       
I...   even I...   can play dead....  play........



"Psychedelic part":

1x :
[ Tab from: http://www.guitartabs.cc/tabs/d/dandy_warhols/nietzsche_tab_ver_3.html ]
E ----------------------------------------
H ----------------------------------------
G ---------0-------2----0----4----0-------
D --2----4---4-------------------------2--
A ----------------------------------------
E ----------------------------------------

3x :

E ----------------------------------------
H ----------------------------------------
G ----0------2----0----4----0-------------
D --4---4------------------------2--------
A ----------------------------------------
E ----------------------------------------

2x :

E --0-------------------------------------
H ------3----2----0----3----0-------------
G -------------------------------0--------
D ----------------------------------------
A ----------------------------------------
E ----------------------------------------

2x :

E ----------------------------------------
H ----------------------------------------
G ----0------2----0----4----0-------------
D --4---4------------------------2--------
A ----------------------------------------
E ----------------------------------------
Comments