Dandy Warhols - Bohemian Like You Chords & Tabs

 

Bohemian Like You Chords & Tabs

Dandy Warhols Chords & Tabs

Version: 8 Type: Tab

Bohemian Like You Tab

   
best band in the world shame this is the first song i worked out seeming there are
so many other great songs but here it is probley wrong but to the best of my ability
bohemian like you from album-13 tales of urban bohemia great album but no where near
as good as there first and greatset album- dandys rule ok. I'm seeing them in 5 days
at the sydney metro if i die after that i die a happy man...... i have pete's
haircut....Love trissytan. Amy is god....

/=slide.
m=mute-by stoping the chord from ringing on with fingers.
x=mute-with fingers, just scrating the muted strings. without presing down hard.

Guitar 1
intro-
e--------------------------------------------------------------------|
b--------------------------------------------------------------------|
g--9--9--x-10-m-10-10--12-12-x-13-m-13-13--7-7-x-8-m-8-8--10-10-10-x-|
d--10-10-x-10-m-10-10--13-13-x-13-m-13-13--8-8-x-8-m-8-8--10-10-10-x-|
a--10-10-x-8--m-8--8---13-13-x-11-m-11-11--8-8-x-6-m-6-6--8--8--8--x-|
e--8--8--x-8--m-8--8---11-11-x-11-m-11-11--6-6-x-6-m-6-6--8--8--8--x-|

-----------|
-----------|
-10-10-10--|
-10-10-10--|
-8--8--8---|
-8--8--8---|

bridge bit-
e----------------------|
b----------------------|
g----------------------|
d-10-10-10-10-10-10-10-|
a-10-10-10-10-10-10-10-|
e-8--8--8--8--8--8--8--|

Guitar 1
verse-
e-------------------------------------------------------------|
g-------------------------------------------------------------|
g-------------------------------------------------------------|
d--10-10-10-10-10-10-10--13-13-13-13-13-13-13--8-8-8-8-8-8-8--|
a--10-10-10-10-10-10-10--13-13-13-13-13-13-13--8-8-8-8-8-8-8--|
e--8--8--8--8--8--8--8---11-11-11-11-11-11-11--6-6-6-6-6-6-6--|

-----------------------|
-----------------------|
-10-10-10-10-10-10-10--|
-10-10-10-10-10-10-10--|
-8--8--8--8--8--8--8---|
-8--8--8--8--8--8--8---|

chorus-

guitar 1 & 2 play the same.
[ Tab from: http://www.guitartabs.cc/tabs/d/dandy_warhols/bohemian_like_you_tab_ver_8.html ]
e-------------------------------------------------------------|
g-------------------------------------------------------------|
g-------------------------------------------------------------|
d--10-10-10-10-10-10-10--13-13-13-13-13-13-13--8-8-8-8-8-8-8--|
a--10-10-10-10-10-10-10--13-13-13-13-13-13-13--8-8-8-8-8-8-8--|
e--8--8--8--8--8--8--8---11-11-11-11-11-11-11--6-6-6-6-6-6-6--|

-----------------------|
-----------------------|
-10-10-10-10-10-10-10--|
-10-10-10-10-10-10-10--|
-8--8--8--8--8--8--8---|
-8--8--8--8--8--8--8---|

2nd part of the chorus-

guitar 1

e--------------------------------------------------------------------|
b--------------------------------------------------------------------|
g--9--9--x-10-m-10-10--12-12-x-13-m-13-13--7-7-x-8-m-8-8--10-10-10-x-|
d--10-10-x-10-m-10-10--13-13-x-13-m-13-13--8-8-x-8-m-8-8--10-10-10-x-|
a--10-10-x-8--m-8--8---13-13-x-11-m-11-11--8-8-x-6-m-6-6--8--8--8--x-|
e--8--8--x-8--m-8--8---11-11-x-11-m-11-11--6-6-x-6-m-6-6--8--8--8--x-|

-----------|
-----------|
-10-10-10--|
-10-10-10--|
-8--8--8---|
-8--8--8---|

guitar 2 behind 1.

e-------------------------------------------------------------|
g-------------------------------------------------------------|
g-------------------------------------------------------------|
d--10-10-10-10-10-10-10--13-13-13-13-13-13-13--8-8-8-8-8-8-8--|
a--10-10-10-10-10-10-10--13-13-13-13-13-13-13--8-8-8-8-8-8-8--|
e--8--8--8--8--8--8--8---11-11-11-11-11-11-11--6-6-6-6-6-6-6--|

-----------------------|
-----------------------|
-10-10-10-10-10-10-10--|
-10-10-10-10-10-10-10--|
-8--8--8--8--8--8--8---|
-8--8--8--8--8--8--8---|

end-
e-------------------------|
b-------------------------|
g-------------------------|
d--x-10/////--------------|
a--x-10////---------------|
e--x-8////----------------|

ORDER
introx2
bridgex4
versex2
bridgex4
versex2
choursx2
chorus 2nd halfx2
versex2 but without guitar just keyboard and drums.
chorusx2
chorus 2nd halfx2
chorusx4
chorus 2nd halfx2
bridgex4
endx1