Dandy Warhols - All The Money Or The Simple Life Honey Chords & Tabs

 

All The Money Or The Simple Life Honey Chords & Tabs

Dandy Warhols Chords & Tabs

Version: 1 Type: Tab

All The Money Or The Simple Life Honey Tab

   
Standard Tuning: EADGBe

 Trumpet Intro for guitar
e|---------------------|
B|-12hold--------------|
G|---------11h13-------|
D|---------------9hold-|
A|---------------------|
E|---------------------|

|--------------------------------------------------------|
|--12-15-14-12------15-14-10--------10-12-----10-12------|(Not entirely sure 
|--------------------------------13--------13-------11---| about the last 
|--------------------------------------------------------| few notes here)
|--------------------------------------------------------|
|--------------------------------------------------------|
[ Tab from: http://www.guitartabs.cc/tabs/d/dandy_warhols/all_the_money_or_the_simple_life_honey_tab.html ]
|--------------------------------------------------------|
|--12-15-14-12------15-14-10--------10-12-----10-12hold--|
|--------------------------------13--------13------------|
|--------------------------------------------------------|
|--------------------------------------------------------|
|--------------------------------------------------------|

 Intro/Verse
   B  A  E
|--7--5--0--|
|--7--5--0--|
|--8--6--1--|
|--9--7--2--|
|--9--7--2--|
|--7--5--0--|

 Bridge?
   D  B (x3) E  F    
|--x--x------x--x---|
|--7--4------9--11--|
|--7--4------9--11--|
|--7--4------9--11--|
|--5--2------7--9---|
|-------------------|
   B  A(up stroke x2) E        
|--7--5---------------0---|
|--7--5---------------0---|
|--8--6---------------1---|
|--9--7---------------2---|
|--9--7---------------2---|
|--7--5---------------0---|

Then Solo etc