Dancing Pants - Funkey Honky Chords & Tabs

 

Funkey Honky Chords & Tabs

Dancing Pants Chords & Tabs

Version: 1 Type: Tab 0 ratings
1 star 2 stars 3 stars 4 stars 5 stars
comments

Funkey Honky Tab

   
Tablature for The Dancing Pants's Funky Honkey






#----------------------------------PLEASE NOTE---------------------------------#
#This file is the author's own work and represents their interpretation of the #
#song. You may only use this file for private study, scholarship, or research. #
#------------------------------------------------------------------------------#

FUNKY HONKEYAs recorded by The Dancing PantsTranscribed by Wes SharpWords and Music by Wes SharpArranged by The Dancing PantsGtr I (E A D G B E) - 'Wes Sharp'

 Intro
  Moderate Rock Q=100
 4/4
  Gtr I
  Q  Q  S S S S S S S S   Q  Q  E E E E
|-----------------------|-----------------|
|-----------------------|-----------------|
|-9--9--------7-9-7-----|-7--7------5-7b9-|
|-9--9--7-9-7-------9-7-|-7--7--5-7-------|
|-7--7------------------|-5--5------------|
|-----------------------|-----------------|


  Q  Q  S S S S S S S S   Q  Q  S S S S S S S S
|-----------------------|-------------------------|
|-----------------------|-------------------------|
|-----------------------|-------------------5-7---|
|-7--7------------5-7-5-|-7--7----------5-7-------|
|-7--7------5-7-5-------|-7--7------5-7-----------|
|-5--5--5-8-------------|-5--5--5-8---------------|


  Q  Q  S S S S S S S S   Q  Q  E E   E   E
|-----------------------|-------------------|
|-----------------------|-------------------|
|-9--9------7---7-9-7---|-7--7----7---7---5-|
|-9--9--7-9---9-------9-|-7--7--5-7b9-7b9-5-|
|-7--7------------------|-5--5--------------|
|-----------------------|-------------------|


  Q  Q  S S S S S S S S   Q  Q  S S S S S S S S
|-----------------------|-----------------------|
|-----------------------|-----------------------|
|-----------------------|-------------------5-7-|
|-7--7------------5-7-5-|-7--7----------5-7-----|
|-7--7------5-7-5-------|-7--7------5-7---------|
|-5--5--5-8-------------|-5--5--5-8-------------|


 Verse
  Q  Q  S S S S E S S   Q  Q  S S S S S S S S
|---------------------|-----------------------|
|---------------------|-----------------------|
|---------------------|---------------5---5---|
|-----------7-9---7---|-----------5-----7-----|
|-------7-9-----------|-------5-7---7---------|
|---------------------|-----------------------|


  H    S S S S S S S   S   S S S S S S S S S S S S S E.
|------8-5---5-----------|--------------------------------|
|----------8---8-5-------|--------------------------------|
|------------------7b9-5-|-----5---5-7-5---5-7-5---5------|
|------------------------|-5-7---7-------7-------7--------|
|------------------------|--------------------------------|
|------------------------|--------------------------------|


  Q  Q  S S S S S S S S    Q  Q S S S S S S S S
|------------------------|----------------------|
|------------------------|----------------------|
|------------------------|--------------5---5---|
|-----------7-9-----7----|----------5-----7-----|
|-------7-9--------------|------5-7---7---------|
|------------------------|----------------------|


  H    S S S S S S S   S   S S S S S S S S S S S S S E.
|------8-5---5-----------|-------------------------------|
|----------8---8-5-------|-------------------------------|
|------------------7b9-5-|-----5---5-7-5---5-7-5---5-----|
|------------------------|-5-7---7-------7-------7-------|
|------------------------|-------------------------------|
|------------------------|-------------------------------|


 Chorus
  Q  Q  Q  Q    Q  Q  S S S S S S S S   Q  Q  Q  Q    Q  Q  S S S S S S S S
|-0--0--2--2--|-0--0------------------|-0--0--2--2--|-0--0-------------------|
|-0--0--3--3--|-2--2------------------|-0--0--3--3--|-2--2-------------------|
|-1--1--2--2--|-2--2--------------5-7-|-1--1--2--2--|-2--2-------------------|
|-2--2--0--0--|-2--2----------5-7-----|-2--2--0--0--|-2--2--x-x-x-x-x-x-x-x--|
|-2--2--------|-0--0------5-7---------|-2--2--------|-0--0--x-x-x-x-x-x-x-x--|
|-0--0--------|-------5-8-------------|-0--0--------|-------x-x-x-x-x-x-x-x--|


 Pre-Verse
 4/4
  Q  Q  S S S S S S S S   Q  Q  E E E E
|-----------------------|-----------------|
|-----------------------|-----------------|
|-9--9--------7-9-7-----|-7--7------5-7b9-|
|-9--9--7-9-7-------9-7-|-7--7--5-7-------|
|-7--7------------------|-5--5------------|
|-----------------------|-----------------|


  Q  Q  S S S S S S S S   Q  Q  S S S S S S S S
|-----------------------|-------------------------|
|-----------------------|-------------------------|
|-----------------------|-------------------5-7---|
|-7--7------------5-7-5-|-7--7----------5-7-------|
|-7--7------5-7-5-------|-7--7------5-7-----------|
|-5--5--5-8-------------|-5--5--5-8---------------|


  Q  Q  S S S S S S S S   Q  Q  E E   E E
|-----------------------|-----------------|
|-----------------------|-----------------|
|-9--9------7-------7---|-7--7----7-----5-|
|-9--9----------------9-|-7--7----7b9---5-|
|-7--7------------------|-5--5------------|
|-----------------------|-----------------|


  Q  Q  S S S S S S S S   Q  Q  S S S S S S S S
|-----------------------|-----------------------|
|-----------------------|-----------------------|
|-----------------------|-------------------5-7-|
|-7--7------------5-7-5-|-7--7----------5-7-----|
|-7--7------5-7-5-------|-7--7------5-7---------|
|-5--5--5-8-------------|-5--5--5-8-------------|


 Verse
  Q  Q  S S S S S S S S   Q  Q  S S S S S S S S
|-----------------------|-----------------------|
|-----------------------|-----------------------|
|-----------------------|---------------5---5---|
|-----------7-9-----7---|-----------5-----7-----|
|-------7-9-------------|-------5-7---7---------|
|-----------------------|-----------------------|


  H    S S S S S S S   S   S S S S S S S S S S S S S E.
|------8-5---5-----------|-------------------------------|
|----------8---8-5-------|-------------------------------|
|------------------7b9-5-|-----5---5-7-5---5-7-5---5-----|
|------------------------|-5-7---7-------7-------7-------|
|------------------------|-------------------------------|
|------------------------|-------------------------------|


  Q  Q  S S S S S S S S   Q  Q  S S S S S S S S
|-----------------------|-----------------------|
|-----------------------|-----------------------|
|-----------------------|---------------5---5---|
|-----------7-9-----7---|-----------5-----7-----|
|-------7-9-------------|-------5-7---7---------|
|-----------------------|-----------------------|


  H    S S S S S S S   S   S S S S S S S S S S S S S E.
|------8-5---5-----------|-------------------------------|
|----------8---8-5-------|-------------------------------|
|------------------7b9-5-|-----5---5-7-5---5-7-5---5-----|
|------------------------|-5-7---7-------7-------7-------|
|------------------------|-------------------------------|
|------------------------|-------------------------------|


   Interlude
     Q   Q   Q      Q     Q   E  E     E  E  E  E
||---------------------|-----------------------------|
||o--------------------|-----------------------------|
||------12--14b16r=12--|-----10-12b14-------10-12b14r|
||--14-----------------|-12-----------10-12----------|
||o--------------------|-----------------------------|
||---------------------|-----------------------------|


   Q   Q   Q      Q     Q   E  E     E  E  E  E
|--------------------|--------------------------------||
|--------------------|-------------------------------o||
|-----12--14b16r=12--|-----10-12b14-------10-12b14r===||
|-14-----------------|-12-----------10-12-------------||
|--------------------|-------------------------------o||
|--------------------|--------------------------------||


 Chorus
  Q  Q  Q  Q    Q  Q  S S S S S S S S   Q  Q  Q  Q    Q  Q  S S S S S S S S
|-0--0--2--2--|-0--0------------------|-0--0--2--2--|-0--0-------------------|
|-0--0--3--3--|-2--2------------------|-0--0--3--3--|-2--2-------------------|
|-1--1--2--2--|-2--2--------------5-7-|-1--1--2--2--|-2--2-------------------|
|-2--2--0--0--|-2--2----------5-7-----|-2--2--0--0--|-2--2--x-x-x-x-x-x-x-x--|
|-2--2--------|-0--0------5-7---------|-2--2--------|-0--0--x-x-x-x-x-x-x-x--|
|-0--0--------|-------5-8-------------|-0--0--------|-------x-x-x-x-x-x-x-x--|


   Bridge
    Q  E S S S S S S S S S S   Q  E S S S S S S S S S S
||---------------------------|--------------------------|
||o--------------------------|--------------------------|
||--9--9-x-x-x-x-x-x-x-x-x-x-|-7--7-x-x-x-x-x-x-x-x-x-x-|
||--7--7-x-x-x-x-x-x-x-x-x-x-|-5--5-x-x-x-x-x-x-x-x-x-x-|
||o-7--7-x-x-x-x-x-x-x-x-x-x-|-5--5-x-x-x-x-x-x-x-x-x-x-|
||---------------------------|--------------------------|


                             1.                           2.
  Q  E S S S S S S S S S S   Q  E S S S S S S S S S S     Q  E H    E
|--------------------------|---------------------------||-------------|
|--------------------------|--------------------------o||-------------|
|-9--9-x-x-x-x-x-x-x-x-x-x-|-7--7-x-x-x-x-x-x-x-x-x-x--||-7--7--------|
|-7--7-x-x-x-x-x-x-x-x-x-x-|-5--5-x-x-x-x-x-x-x-x-x-x--||-5--5--------|
|-7--7-x-x-x-x-x-x-x-x-x-x-|-5--5-x-x-x-x-x-x-x-x-x-x-o||-5--5--------|
|--------------------------|---------------------------||-------------|

[ Tab from: http://www.guitartabs.cc/tabs/d/dancing_pants/funkey_honky_tab.html ]
    S S S S S S S S S S S S S S S S   S S S S S S S S S S S S S S S S   S S S S S S S S S S S S S S S S
||----------------------------------|---------------------------------|---------------------------------|
||o---------------------------------|---------------------------------|---------------------------------|
||--9-9-9-9-9-9-9-9-9-9-9-9-9-9-9-9-|-7-7-7-7-7-7-7-7-7-7-7-7-7-7-7-7-|-9-9-9-9-9-9-9-9-9-9-9-9-9-9-9-9-|
||--7-7-7-7-7-7-7-7-7-7-7-7-7-7-7-7-|-5-5-5-5-5-5-5-5-5-5-5-5-5-5-5-5-|-7-7-7-7-7-7-7-7-7-7-7-7-7-7-7-7-|
||o-7-7-7-7-7-7-7-7-7-7-7-7-7-7-7-7-|-5-5-5-5-5-5-5-5-5-5-5-5-5-5-5-5-|-7-7-7-7-7-7-7-7-7-7-7-7-7-7-7-7-|
||--7-7-7-7-7-7-7-7-7-7-7-7-7-7-7-7-|-5-5-5-5-5-5-5-5-5-5-5-5-5-5-5-5-|-7-7-7-7-7-7-7-7-7-7-7-7-7-7-7-7-|


  1.                                   2.
  S S S S S S S S S S S S S S S S      S S S S S S S S   S   S   S   S    S    S    S    S
|----------------------------------||-------------------------------------------------------|
|---------------------------------o||-------------------------------------------------------|
|-7-7-7-7-7-7-7-7-7-7-7-7-7-7-7-7--||--7-7-7-7-7-7-7-7--10--10--10--10---12---12---12---12--|
|-5-5-5-5-5-5-5-5-5-5-5-5-5-5-5-5--||--5-5-5-5-5-5-5-5---8---8---8---8---10---10---10---10--|
|-5-5-5-5-5-5-5-5-5-5-5-5-5-5-5-5-o||--5-5-5-5-5-5-5-5---8---8---8---8---10---10---10---10--|
|-5-5-5-5-5-5-5-5-5-5-5-5-5-5-5-5--||--5-5-5-5-5-5-5-5---8---8---8---8---10---10---10---10--|


    E E E E E E E E   E E E E E E E E   E E E E E E E E   E E E E E E E E
||------------------|-----------------|-----------------|-------------------||
||o-----7-------7---|-----5-----------|-----7-------7---|-----5------------o||
||------7-9-----7-9-|-------7-----5-7-|-----7-9-----7-9-|-------7-----5-7---||
||--7-9-----7-9-----|-5-7-----5-7-----|-7-9-----7-9-----|-5-7-----5-7-------||
||o-----------------|-----------------|-----------------|------------------o||
||------------------|-----------------|-----------------|-------------------||


    S S S S S S S S S S S S S S S S   S S S S S S S S S S S S S S S S   S S S S S S S S S S S S S S S S
||----------------------------------|---------------------------------|---------------------------------|
||o---------------------------------|---------------------------------|---------------------------------|
||--9-9-9-9-9-9-9-9-9-9-9-9-9-9-9-9-|-7-7-7-7-7-7-7-7-7-7-7-7-7-7-7-7-|-9-9-9-9-9-9-9-9-9-9-9-9-9-9-9-9-|
||--7-7-7-7-7-7-7-7-7-7-7-7-7-7-7-7-|-5-5-5-5-5-5-5-5-5-5-5-5-5-5-5-5-|-7-7-7-7-7-7-7-7-7-7-7-7-7-7-7-7-|
||o-7-7-7-7-7-7-7-7-7-7-7-7-7-7-7-7-|-5-5-5-5-5-5-5-5-5-5-5-5-5-5-5-5-|-7-7-7-7-7-7-7-7-7-7-7-7-7-7-7-7-|
||--7-7-7-7-7-7-7-7-7-7-7-7-7-7-7-7-|-5-5-5-5-5-5-5-5-5-5-5-5-5-5-5-5-|-7-7-7-7-7-7-7-7-7-7-7-7-7-7-7-7-|


  1.                                   2.
  S S S S S S S S S S S S S S S S      S S S S S S S S   S   S   S   S    S    S    S    S
|----------------------------------||-------------------------------------------------------|
|---------------------------------o||-------------------------------------------------------|
|-7-7-7-7-7-7-7-7-7-7-7-7-7-7-7-7--||--7-7-7-7-7-7-7-7--10--10--10--10---12---12---12---12--|
|-5-5-5-5-5-5-5-5-5-5-5-5-5-5-5-5--||--5-5-5-5-5-5-5-5---8---8---8---8---10---10---10---10--|
|-5-5-5-5-5-5-5-5-5-5-5-5-5-5-5-5-o||--5-5-5-5-5-5-5-5---8---8---8---8---10---10---10---10--|
|-5-5-5-5-5-5-5-5-5-5-5-5-5-5-5-5--||--5-5-5-5-5-5-5-5---8---8---8---8---10---10---10---10--|


 Guitar Solo
  H      H      H    E S E S E   H      H      H    S S S S S S S S
|-------------|----------------|-------------|-----------------------|
|-7b9r===5----|-7--------------|-7b9r===5----|-----------------------|
|-------------|--------5-8-5---|-------------|-6----------5-7-5------|
|-------------|------7-------7-|-------------|------5-7-5-------7-5--|
|-------------|----------------|-------------|-----------------------|
|-------------|----------------|-------------|-----------------------|


  E S S S S E S S S S E    E      H    H
|-------------------------------|-----------|
|-7-x-x-x-x-7-x-x-x-x-9b11-9b11-|-7----5----|
|-6-x-x-x-x-6-x-x-x-x-----------|-----------|
|-4-x-x-x-x-4-x-x-x-x-----------|-----------|
|-------------------------------|-----------|
|-------------------------------|-----------|


  E S S S S E S S S S E    E      H H
|-------------------------------|-------|
|-7-x-x-x-x-7-x-x-x-x-9b11-9b11-|-5-7---|
|-6-x-x-x-x-6-x-x-x-x-----------|-------|
|-4-x-x-x-x-4-x-x-x-x-----------|-------|
|-------------------------------|-------|
|-------------------------------|-------|


                           |--3--| |-3-|
  H.       E   E     H     E  E  E E E E   H      S S S S S S S S   W
|------------------|------10-10-10-8-8-8-|------------------------|------|
|-7b9r=====7b9-7b9-|-7----10-10-10-7-7-7-|-7b9r===================|======|
|------------------|---------------------|--------------------5-7-|------|
|------------------|---------------------|----------------5-7-----|-7----|
|------------------|---------------------|------------5-7---------|-7----|
|------------------|---------------------|--------5-8-------------|-5----|


                \1
  +W           +W           +W           +W
|------------|------------|------------|--------|
|------------|------------|------------|--------|
|------------|------------|------------|--------|
|-(7)--------|-(7)--------|-(7)--------|-(7)----|
|-(7)--------|-(7)--------|-(7)--------|-(7)----|
|-(5)--------|-(5)--------|-(5)--------|-(5)----|


 Verse
  Wx4
|--------|
|--------|
|--------|
|--------|
|--------|
|--------|


  Q  Q  S S S S S S S S   Q  Q  S S S S S S S S
|-----------------------|-----------------------|
|-----------------------|-----------------------|
|-----------------------|---------------5---5---|
|-----------7-9-----7---|-----------5-----7-----|
|-------7-9-------------|-------5-7---7---------|
|-----------------------|-----------------------|


  H    S S S S S S S   S   S S S S S S S S S S S S S E.
|------8-5---5-----------|-------------------------------|
|----------8---8-5-------|-------------------------------|
|------------------7b9-5-|-----5---5-7-5---5-7-5---5-----|
|------------------------|-5-7---7-------7-------7-------|
|------------------------|-------------------------------|
|------------------------|-------------------------------|


   Chorus
    Q  Q  Q  Q    Q  Q  S S S S S S S S
||--0--0--2--2--|-0--0------------------|
||o-0--0--3--3--|-2--2------------------|
||--1--1--2--2--|-2--2--------------5-7-|
||--2--2--0--0--|-2--2----------5-7-----|
||o-2--2--------|-0--0------5-7---------|
||--0--0--------|-------5-8-------------|


  Q  Q  Q  Q    Q  Q  S S S S S S S S
|-0--0--2--2--|-0--0-------------------||
|-0--0--3--3--|-2--2------------------o||
|-1--1--2--2--|-2--2-------------------||
|-2--2--0--0--|-2--2--x-x-x-x-x-x-x-x--||
|-2--2--------|-0--0--x-x-x-x-x-x-x-x-o||
|-0--0--------|-------x-x-x-x-x-x-x-x--||


   Outro
     Q   Q   Q      Q     Q   E  E     E  E  E  E
||---------------------|-----------------------------|
||o--------------------|-----------------------------|
||------12--14b16r=12--|-----10-12b14-------10-12b14r|
||--14-----------------|-12-----------10-12----------|
||o--------------------|-----------------------------|
||---------------------|-----------------------------|


   Q   Q   Q      Q     Q   E  E     E  E  E  E
|--------------------|--------------------------------||
|--------------------|-------------------------------o||
|-----12--14b16r=12--|-----10-12b14-------10-12b14r===||
|-14-----------------|-12-----------10-12-------------||
|--------------------|-------------------------------o||
|--------------------|--------------------------------||


  ~~~~~~~~~~~~~~~
  W          +W
|----------|--------|
|----------|--------|
|-9--------|-(9)----|
|-9--------|-(9)----|
|-7--------|-(7)----|
|----------|--------|




Duration Legend
---------------
W - whole; H - half; Q - quarter; E - 8th; S - 16th; T - 32nd; X - 64th; a - acciaccatura
+ - note tied to previous; . - note dotted; .. - note double dotted
Uncapitalized letters represent notes that are staccato (1/2 duration)
Irregular groupings are notated above the duration line
Duration letters will always appear directly above the note/fret number it represents the
duration for.  Duration letters with no fret number below them represent rests.  Multi-
bar rests are notated in the form Wxn, where n is the number of bars to rest for.  Low
melody durations appear below the staff

Tablature Legend
----------------
 h   - hammer-on
 p   - pull-off
 b   - bend
 pb  - pre-bend
 r   - bend release (if no number after the r, then release immediately)
 /\  - slide into or out of (from/to "nowhere")
 s   - legato slide
 S   - shift slide
<n> - natural harmonic
[n]  - artificial harmonic
n(n) - tapped harmonic
 ~   - vibrato
 tr  - trill
 T   - tap
 TP  - trem. picking
 PM  - palm muting
\n/  - tremolo bar dip; n = amount to dip
 \n  - tremolo bar down
 n/  - tremolo bar up
/n\  - tremolo bar inverted dip
 =   - hold bend; also acts as connecting device for hammers/pulls
 <> - volume swell (louder/softer)
 x   - on rhythm slash represents muted slash
 o   - on rhythm slash represents single note slash

Misc Legend
-----------
 |  - bar
||  - double bar
||o - repeat start
o|| - repeat end
*|  - double bar (ending)
 :  - bar (freetime)
 $  - Segno
 &  - Coda
Tempo markers - <E/E./Q/Q./H/H.> = BPM(8/16=s8/s16), where s8 = swing 8ths, s16 = swing 16ths

** Generated using Power Tab Editor by Brad Larsen:   The Official Power Tab Web Site


Comments