Damien Rice - Volcano Chords & Tabs

 

Volcano Chords & Tabs

Damien Rice Chords & Tabs

Version: 1 Type: Bass Tab

Volcano Bass Tab

This is my first tab ever.
actually..
I dont even play bass...
But i was messing around and i figured this out...i think.

yea i dono..
most of it is repeated, pretty easy like
but i just tabbed it out as the song went along.
hope its alright..

Give me some feedback!
kgriff04@gmail.com
_________________________________________________________
----------------------------------------------------------
________________________
Song: Volcano
Artist: Damien Rice
Instrument: Bass
Tuning: Standard
________________________


--------------------------

                      
G |-------------------------------------------------|
D |-------------------------------------------------|
A |-------------------------------------------------|
E |--2h5-5------2h5-5------2h5-5------2h5-5---------|

G |-------------------------------------------------|
D |-------------------------------------------------|
A |-------------------------------------------------|
E |--0h1-1------0h1-1------0h1-1------0h1-1---1s5---|

G |-------------------------------------------------|
D |-------------------------------------------------|
A |-------------------------------------------------|
E |--2h5-5------2h5-5------2h5-5------2h5-5---------|

G |-------------------------------------------------|
D |-------------------------------------------------|
A |-------------------------------------------------|
E |--0h1-1------0h1-1------0h1-1------0h1-1---1s5---|

                      

...dont hold yourself like that...
G |-------------------------------------------------|
D |-------------------------------------------------|
A |-------------------------------------------------|
E |--2h5-5------2h5-5------2h5-5------2h5-5---------|

G |-------------------------------------------------|
D |-------------------------------------------------|
A |-------------------------------------------------|
E |--0h1-1------0h1-1------0h1-1------0h1-1---1s5---|
...i kissed you're mouth and back
G |-------------------------------------------------|
D |-------------------------------------------------|
A |-------------------------------------------------|
E |--2h5-5------2h5-5------2h5-5------2h5-5---------|

G |-------------------------------------------------|
D |-------------------------------------------------|
A |-------------------------------------------------|
E |--0h1-1------0h1-1------0h1-1------0h1-1---1s5---|
...dont build you're world around...volcanos melt you down
G |-------------------------------------------------|
D |-------------------------------------------------|
A |-------------------------------------------------|
E |-3-3--2h3-3--2h1-1----2h1-1--2h3-3--2h3-3--2h1-1-|

                    <> :o

G |-------------------------------------------------|
D |-------------------------------------------------|
A |-------------------------------------------------|
E |--2h5-5------2h5-5------0h1-1------0h1-1---------|

G |-------------------------------------------------|
D |-------------------------------------------------|
A |-------------------------------------------------|
E |--2h5-5------2h5-5------0h1-1------0h1-1---------|

G |-------------------------------------------------|
D |-------------------------------------------------|
A |-------------------------------------------------|
E |--2h5-5------2h5-5------0h1-1------0h1-1---------|
...give me miles and miles of mountains and il ask for the sea
G |-------------------------------------------------|
D |-------------------------------------------------|
A |-------------------------------------------------|
E |--2h5-5------2h5-5------0h1-1--------------------|

then...

G |-------------------------------------------------|
D |-------------------------------------------------|
A |-------------------------------------------------|
E |--2h5-5------2h5-5------2h5-5------2h5-5---------|

G |-------------------------------------------------|
D |-------------------------------------------------|
A |-------------------------------------------------|
E |--0h1-1------0h1-1------0h1-1------0h1-1---------|

G |-------------------------------------------------|
D |-------------------------------------------------|
A |-------------------------------------------------|
E |--2h5-5------2h5-5------2h5-5------2h5-5---------|
[ Tab from: http://www.guitartabs.cc/tabs/d/damien_rice/volcano_btab.html ]
G |-------------------------------------------------|
D |-------------------------------------------------|
A |-------------------------------------------------|
E |--0h1-1------0h1-1------0h1-1------0h1-1---1s5---|

                     

...dont throw yourself like that...
G |-------------------------------------------------|
D |-------------------------------------------------|
A |-------------------------------------------------|
E |--2h5-5------2h5-5------2h5-5------2h5-5---------|

G |-------------------------------------------------|
D |-------------------------------------------------|
A |-------------------------------------------------|
E |--0h1-1------0h1-1------0h1-1------0h1-1---1s5---|

G |-------------------------------------------------|
D |-------------------------------------------------|
A |-------------------------------------------------|
E |--2h5-5------2h5-5------2h5-5------2h5-5----3----|

G |-------------------------------------------------|
D |-------------------------------------------------|
A |-------------------------------------------------|
E |---------0h1-1------0h1-1------0h1-1-------------|

...dont drag yourself around...volcanos melt you down
G |-------------------------------------------------|
D |-------------------------------------------------|
A |-------------------------------------------------|
E |-3-3--2h3-3--2h1-1----2h1-1--2h3-3--2h3-3--2h1-1-|

                    <>

G |-------------------------------------------------|
D |-------------------------------------------------|
A |-------------------------------------------------|
E |--2h5-5------2h5-5------0h1-1------0h1-1---------|

G |-------------------------------------------------|
D |-------------------------------------------------|
A |-------------------------------------------------|
E |--2h5-5------2h5-5------0h1-1------0h1-1---------|

G |-------------------------------------------------|
D |-------------------------------------------------|
A |-------------------------------------------------|
E |--2h5-5------2h5-5------0h1-1------0h1-1---------|
...give me miles and miles of mountains and il ask for the sea
G |-------------------------------------------------|
D |-------------------------------------------------|
A |-------------------------------------------------|
E |--2h5-5------2h5-5------0h1-1--------------------|

              >>>>Bridge<<<<<
                  rest :)

Then...(ending the song with..)

                 >>outro<<

Shes still too young.....(valcanos melt you down)

G |--------------------------------------------------|
D |--------------------------------------------------|
A |--------------------------------------------------|
E |---5-5---5-5---5-5---5-5----1-1---1-1---1-1-------|

G |--------------------------------------------------|
D |--------------------------------------------------|
A |--------------------------------------------------|
E |---5-5---5-5---5-5---5-5----1-1---1-1---1-1---1-1-|

G |-------------------------------------------------|
D |-------------------------------------------------|
A |-------------------------------------------------|
E |--2h5-5------2h5-5------2h5-5------2h5-5---------|

G |-------------------------------------------------|
D |-------------------------------------------------|
A |-------------------------------------------------|
E |--0h1-1------0h1-1------0h1-1------0h1-1---------|

G |-------------------------------------------------|
D |-------------------------------------------------|
A |-------------------------------------------------|
E |--2h5-5------2h5-5------2h5-5------2h5-5---------|

G |-------------------------------------------------|
D |-------------------------------------------------|
A |-------------------------------------------------|
E |--0h1-1------0h1-1------0h1-1------0h1-1---------|

G |-------------------------------------------------|
D |-------------------------------------------------|
A |-------------------------------------------------|
E |--5-5----------------5-5----------------1---1-1--|
       ^let ring a bit    ^let ring a bit        ^let it ring out..


G |---------------------------------------------------|
D |---------------------------------------------------|
A |---------------------------------------------------|
E |-2h5-5----------------5-5--------------------1-1---|
        ^let ring a bit    ^let ring a bit        ^let it ring out..


Note:
  I think there is Bass being played in the birdge...Im unsure though.
anyone who thinks so do email me - there could be a couple of notes played
with the guitar..