Damien Rice - Lonelily Chords & Tabs

 

Lonelily Chords & Tabs

Damien Rice Chords & Tabs

Version: 2 Type: Tab 0 ratings
1 star 2 stars 3 stars 4 stars 5 stars
comments

Lonelily Tab

   
The whole song is played the same way, the chords are strummed as well in the chorus

The chords used are

Fmaj7 - X03210
C     - X32010
Gsus4 - 320010

[ Tab from: http://www.guitartabs.cc/tabs/d/damien_rice/lonelily_tab_ver_2.html ]
e|-------------------------------------------------------------------------|
B|--------1----------1---------0-------------------1---------1-------0h1p0-|
G|-----2---------------------------------------0h2-------------------------|
D|--3------------2-----------------0h2-----2h3------------2----------------|
A|------------3------------2---------------------------3-------------------|
E|----------------------3----------------------------------------3---------|


e|-------------------------------------------------------------------------|
B|-------1----------1---------0-0-0h1h0---------------1------1-------------|
G|----2-------------------------------------------0h2----------------------|
D|-3------------2-----------------0h2h0--2-----2h3--------2----------------|
A|-----------3------------2----------------------------3-------------------|
E|---------------------3-------------------------------------------3-------|
Comments