Damien Rice - I Remember Chords & Tabs

 

I Remember Chords & Tabs

Damien Rice Chords & Tabs

Version: 1 Type: Tab 1 rating
1 star 2 stars 3 stars 4 stars 5 stars
comments

I Remember Tab

   
Title: I Remember
Artist: Damien Rice
Album: "0"
Email: GuitarFret18@aol.com

This song is one of the best from the ablum and very easy
to learn. Fingerpicking half of it and the second part
chords. Put your guitar on Capo on 2nd fret.

A few notes not in but they're easily picked out once you 
learn this. Its easy fingerpicking so dont worry!


            I Remember it well  .....

            D/F#     G                C               D/F#
e:--------------------------------------------------------------|
B:--------------------------3---------------3-------------------|
G:--------0-------2------0----------------0---------0--------2--|
D:------0-------0------0----------------2-------0h2--------0----|
A:------------------------------0--2-h3------------------0------|
E:---0-------2-------3---------------------------------2--------|




           C               D/F#        G       D/F#     C
e:--------------------------------------------------------------|
B:---------------3----------------------------------------------|
G:-------------0---------0--2---------------0---2-----------0---|
D:-----------2-------0h2------0-----------0-------0-------0-----|
A:---0--2-h3--------------------0-------------------0---3-------|
E:--------------------------2-----0----3--------2---------------|



          I Remember it well  .....

            D/F#     G                C               D/F#
e:--------------------------------------------------------------|
B:--------------------------3---------------3-------------------|
G:--------0-------2------0----------------0---------0--------2--|
D:------0-------0------0----------------2-------0h2--------0----|
A:------------------------------0--2-h3------------------0------|
E:---0-------2-------3---------------------------------2--------|




           C               D/F#        G       D/F#     C
e:--------------------------------------------------------------|
B:---------------3----------------------------------------------|
G:-------------0---------0--2---------------0---2-----------0---|
D:-----------2-------0h2------0-----------0-------0-------0-----|
A:---0--2-h3--------------------0-------------------0---3-------|
E:--------------------------2-----0----3--------2---------------|



   Won't you hear tonight.....
[ Tab from: http://www.guitartabs.cc/tabs/d/damien_rice/i_remember_tab.html ]
            G               C
e:------------------------------------|
B:-----------------3--------------3---|
G:-------0-------0--------------0-----|
D:---0h2-------0--------------2-------|
A:--------------------0-2-2h3---------|
E:----------3-------------------------|


          Cause I can't believe......
            G               C              D/F#
e:---------------------------------------------|
B:-----------------3--------------3------------|
G:-------0-------0--------------0---------0----|
D:---0h2-------0--------------2-------0h2------|
A:--------------------0-2-2h3------------------|
E:----------3----------------------------------|


   Won't you hear....
            G               C
e:------------------------------------|
B:-----------------3--------------3---|
G----------------0--------------0-----|
D:-------------0--------------2-------|
A:--------------------0-2-2h3---------|
E:----------3-------------------------|


                           ...down
            G               C
e:---------------------------------------------|
B:-----------------3--------------3------------|
G:-------0-------0--------------0-------0------|
D:---0h2-------0--------------2-----0h2--------|
A:--------------------0-2-2h3------------------|
E:----------3----------------------------------|

                                                      Except you my love..
           D/F#     G                C               D/F# 
e:--------------------------------------------------------|(x2)
B:--------------------------3---------------3-------------|
G:--------0-------2------0----------------0-----0-----0---|
D:------0-------0------0----------------2-----2-----2-----|
A:------------------------------0--2-h3-----------3-------|
E:---0-------2-------3------------------------------------|



           D/F#     G                C               D/F#
e:-------------------------------------------------------------|
B:--------------------------3---------------3------------------|
G:--------0-------2------0----------------0----0---------------|
D:------0-------0------0----------------2---------2------------|
A:------------------------------0--2-h3--------------3--2---0--|
E:---0-------2-------3-----------------------------------------|

After this Damiens part kicks in and just follow v.2..
Comments