Damien Rice - Delicate Chords & Tabs

 

Delicate Chords & Tabs

Damien Rice Chords & Tabs

Version: 3 Type: Tab

Delicate Tab

   
----------------------------------------------------------------------------
			     Delicate - Damien rice
----------------------------------------------------------------------------
Tabbed by:kaaaayla


Tuning: normal

oh and everything is in 6 count

Picking Key, for each cord:
[ Tab from: http://www.guitartabs.cc/tabs/d/damien_rice/delicate_tab_ver_3.html ]
    (F)                     (C)                     (Gsus)
e|------------------------|-----------------------|---3--------------------|
B|---------1-----------1--|-----------------------|---2--------------------|
G|-----0h2---0h2---0h2----|---------1-----1-----1-|---0--------------------|
D|-3----------------------|-2---0h2---0h2---0h2---|---0--------------------|
A|------------------------|-----------------------|---0--------------------|
E|------------------------|-----------------------|---3--------------------|
    (G)three counts open
e|--3-------------------------------------------|
B|--0-------------------------------------------|
G|--0------------------------0------0------0----|
D|--0-------------------0h2----0h2----oh2-------|
A|--2-------------------------------------------|
E|--3-------------- ----------------------------|


INTO: F C F C  F C Gsus G 

its pretty simple 
and if you want to play the rest of the song
follow the same pattern up until the chorus 
and then strum 
F F C C  F F C C  F F C C 
then open chords F F  Gsus Gsus 
and then it just repeats its pretty easy