Damien Rice - Cheers Darlin Chords & Tabs

 

Cheers Darlin Chords & Tabs

Damien Rice Chords & Tabs

Version: 2 Type: Tab 0 ratings
1 star 2 stars 3 stars 4 stars 5 stars
comments

Cheers Darlin Tab

   
Title: "Cheers Darlin'"
Artist: Damien Rice

Tabbed by: Kris F. [krevace@hotmail.com]

This is what I hear, so this is what I play.  It's fairly simple, and sounds really clean on an electric.

Enjoy.


INTRO & VERSES
==============
Played once for INTRO.
Am  Dm  G  Cm  Bm | Am  Dm  G  F  E

 
Pick Pattern:

    "Cheers darlin'      here's to you and your lover boy..."
     Am            Dm       G                   Cm    Bm
e|---------5----------5-------------------------------------|
B|---------5----------6-------------------------------------|
G|---------5--------7-7------------4------------------------|
D|------7--7-------7--7---------5------------------10---9---|
A|----7-----------5----------5-------------------10----9----|
E|--5---------------------3---------------------8-----7-----|


    "Cheers darlin'     I got years to wait around for you..."
     Am            Dm         G        F      E
e|---------5----------5-------------------------------------|
B|---------5----------6-------------------------------------|
G|---------5--------7-7------------4-------2-------1--------|
D|------7--7-------7--7----------5-------3-------2----------|
A|----7-----------5----------------------------2------------|
E|--5-------------------------3--------1-----0--------------|



Am            Dm
Cheers darlin'
G                      Cm    Bm
Here's to you and your lover boy
Am            Dm
Cheers darlin'
      G        F      E
I got years to wait around for you

Am            Dm
Cheers darlin'
             G              Cm    Bm
I've got your wedding bells in my ear
Am            Dm
Cheers darlin'
            G          F         E
You give me three cigarettes to smoke my tears away


And now the fun begins.
[ Tab from: http://www.guitartabs.cc/tabs/d/damien_rice/cheers_darlin_tab_ver_2.html ]
    "I..       ...die..      ..mention.."
e|--------------------------------------------------------------|
B|------------------6--8/10-------------------------------------|
G|-----5--7/ 9------7--9/10------4--5/7-------9--10/12--10---9--|
D|-----7--9/10---------------0---5--7/9------10--12/14--12--10--|
A|--0----------7--5---------------------------------------------|
E|-----------------------------3-----------8--------------------|

   "I..         ..lied..    ...kissed you..   ..running.."
e|------------------------------------------------------|
B|------------------6--8/10-----------------------------|
G|-----5--7/ 9------7--9/10------4--5/7------5--4---4---|
D|-----7--9/10---------------0---5--7/9------7--5---6---|
A|--0----------7--5-------------------------------------|
E|-----------------------------3------------------------|


"What Am
    I..                      ..whisper.....piece..."
e|--------------------------------------------------------------|
B|------------------6--8/10-------------------------------------|
G|-----5--7/ 9------7--9/10------4--5/7-------9--10/12--10---9--|
D|-----7--9/10---------------0---5--7/9------10--12/14--12--10--|
A|--0----------7--5---------------------------------------------|
E|-----------------------------3-----------8--------------------|


"What Am
    I..                      ..boy..          ..biggest.."
e|------------------------------------------------------|
B|------------------6--8/10-----------------------------|
G|-----5--7/ 9------7--9/10------4--5/7------5--4---4---|
D|-----7--9/10---------------0---5--7/9------7--5---6---|
A|--0----------7--5-------------------------------------|
E|-----------------------------3------------------------|


Am            Dm
Cheers darlin'
G                      Cm    Bm
Here's to you and your lover man
Am            Dm
Cheers darlin'
       G        F       E
I just hang around and eat from a can
Am            Dm
Cheers darlin'
G                            Cm   Bm
I got a ribbon of green on my guitar
Am            Dm
Cheers darlin'
        G        F         E
I got a beauty queen to sit not very far from here
Comments