Damien Rice - Amie Chords & Tabs

 

Amie Chords & Tabs

Damien Rice Chords & Tabs

Version: 2 Type: Chords 0 ratings
1 star 2 stars 3 stars 4 stars 5 stars
comments

Amie Chords

   
"Amie" - words & music by Damien Rice

"~"  = "resolve to"
Verse:
          D    D/A   Bm     G     Em7  Bm7   G    A7sus4~A7
E ||---- X ---- X ---- 7 ---- 3 ---- O ---- 7 ---- 3 ---- 5-----
A ||---- 5 ---- 4 ---- 9 ---- 5 ---- 7 ---- 9 ---- 5 ---- 7-----
D ||---- 7 ---- 7 ---- 9 ---- 5 ---- 9 ---- 7 ---- 5 ---- 5-----
G ||---- 7 ---- 7 ---- 7 ---- 4 ---- 7 ---- 7 ---- 4 ---- 7~6--
B ||---- 7 ---- 7 ---- 7 ---- 3 ---- 8 ---- 7 ---- 3 ---- 5-----
e ||---- X ---- 7 ---- 7 ---- 3 ---- 7 ---- 7 ---- 3 ---- 5-----

Chorus:
         Bm      G      A       D       G  F#madd2-F#m  Em  A7sus4~A7
E ||---- 7 ----- 3 ----- 5 ----- X ----- 3 ------ 2 ----O -----5----   
A ||---- 9 ----- 5 ----- 7 ----- 5 ----- 5 ------ 4 ----2 -----7---- 
D ||---- 9 ----- 5 ----- 7 ----- 7 ----- 5 ------ 4 ----2 -----5---- 
G ||---- 7 ----- 4 ----- 6 ----- 7 ----- 4 ------ 2 ----O -----7~6--
B ||---- 7 ----- 5 ----- 5 ----- 7 ----- 5 ------ 2 ----O -----5---- 
e ||---- 7 ----- 5 ----- 5 ----- X ----- 5 ------ 4-5---O -----5---- 

[ Tab from: http://www.guitartabs.cc/tabs/d/damien_rice/amie_crd_ver_2.html ]
Verse 1
 D                   D/A                    Bmin                            G
Nothin unusual, Nothin strange close to nothin to at all
 Emin7	                Bmin7              
the same old scenario the same old rain
 G                          A7sus4~A7
theres no explosions here

Something unusual, something strange come from nothin at all
i saw her space ship fly by your window
did you see it disappear?

Chorus
 Bm                       G
Amie come sit on my wall
 A                          D
read me the story of old
 G                     F#madd2
tell it like you still believe
           F#min        Em           A7sus4~A7
that the end of the century is a change in you and me

Verse 2
nothin unusual, nothins changed just a little older, that's all
you know when you've found it theres somethin i've learned
'cause you feel it wnen they take it away
hey hey hey
  
something unusual something strange come from nothin at all
i'm not a miracle im not a saint 
just another soldier on a road to nowhere

  Chorus
Amie come sit on my wall
read me the story of old
tell it like you still believe
the end of the century is a change for you and me

Amie come sit on my wall
read me the story of old
tell it like you still believe
that the end of the century brings a change for you and me
Comments