Dambuilders - Shrine Chords & Tabs

 

Shrine Chords & Tabs

Dambuilders Chords & Tabs

Version: 1 Type: Tab 0 ratings
1 star 2 stars 3 stars 4 stars 5 stars
comments

Shrine Tab

   
#----------------------------------PLEASE NOTE---------------------------------#
#This file is the author's own work and represents their interpretation of the #
#song. You may only use this file for private study, scholarship, or research. #
#------------------------------------------------------------------------------##
From: "Jorge A. Polo" 
Subject:       "Shrine" by the Dambuilders - Correction

I had to make a correction from B# to C (I wasn't thinking!) so is
there anyway you could copy this one over the old one?  Thanks!
--------------------------------------------------------------------


"Shrine" by the Dambuilders


They sometimes play a distorted A throughout the second
half of the bridge.  Listen to the song to get the rythym.


Bridge:
E ------------------------------------------------------|
B ------------------------------------------------------|
G ----------------------------2-2-2-2-2-4---------------|
D --2-2-2-2-2-4-0-0-0-0-0-0-0-------------4-4-4-4-4-4-4-|
A ------------------------------------------------------|
E ------------------------------------------------------|

  Bridge x4

    G
She doesn't speak much English, but
        D
she tells me all her favorite bands
        G
There's not too much to talk about,
D
wonder if she understands
B
I know she likes L7 and
  C
I think that she likes me
     B                                D
When she rolls her stockings past the knee...

we're talking rock and roll
[ Tab from: http://www.guitartabs.cc/tabs/d/dambuilders/shrine_tab.html ]
  Bridge x3

    G
And now it seems like yesterday,
  D
I met her in a smoky club
   G
If you get drunk and fall behind,
    D
you know that I will put you up
    B
And if I learned the language
          C
she could tell me all her dreams
B                         D
  I know exactly what she means

G   D   E
G   D   B  A

    G
And I could fall so easily
  D
because her hair is colored red
  G
I asked her if she'll dye mine too
    D
she tells me it's really dead
      B
And I knew that if I stayed with her
    C
I'd lose all track of time
     B                  D
till I light a candle tonight

call it rock and roll

  Bridge x3

Ending:

    G        D   Asus4
E -----------2-----0-----------------|
B -----------3-----3-----------------|
G -----------2-----2-----------------|
D ------0----0-----0-----------------|
A ----2------------------------------|
E --3--------------------------------|


--------------------------------------------------------------------------
Jorge Polo            polojor@eng.auburn.edu             Auburn University
--------------------------------------------------------------------------
Check out my home page at: http://www.eng.auburn.edu/~polojor/polojor.html
                    (Still under construction)
--------------------------------------------------------------------------
Comments