Damageplan - Breathing New Life Chords & Tabs

 

Breathing New Life Chords & Tabs

Damageplan Chords & Tabs

Version: 4 Type: Tab 0 ratings
1 star 2 stars 3 stars 4 stars 5 stars
comments

Breathing New Life Tab

INTRO
E|------------------------------------------------------------|
B|------------------------------------------------------------|
G|------------------------------------------------------------|
D|--2-3-0-1-0-6---3-4-0-1-0-0---2-3-0-1-0-0---3-4-0-5-3-6-----|
A|--2-3-0-1-0-6---3-4-0-1-0-0---2-3-0-1-0-0---3-4-0-5-3-6-----|
D|--2-3-0-1-0-6---3-4-0-1-0-0---2-3-0-1-0-0---3-4-0-5-3-6-----|

CONTINUED
E|-------------------------------------------------------------|
B|-------------------------------------------------------------|
G|-------------------------------------------------------------|
D|--2-3-0-1-0-6---3-4-0-1-0-0---2-3-0-1-0-0---3-4-0-5-3-6---0--|
A|--2-3-0-1-0-6---3-4-0-1-0-0---2-3-0-1-0-0---3-4-0-5-3-6---0--|
D|--2-3-0-1-0-6---3-4-1-1-0-0---2-3-0-1-0-0---3-4-0-5-3-6---0--|

VERSE
E|-------------------------------------------------------------|
B|-------------------------------------------------------------|
G|-------------------------------------------------------------|
D|----2/5---2/5/8---2/4---2/5/4--------------------------------|
A|----1/4---1/4/7---1/5---1/4/7--------------------------------|
D|--0-----0-------0-----0--------------------------------------|


E|-------------------------------------------------------------|
B|-------------------1--------------------1-----5--------------|
G|-------------------------------------------------------------|
D|--000000000-1-2-6------000000000-1-2-6-----7-----------------|
A|--000000000-1-2-6------000000000-1-2-6-----7-----------------|
D|--000000000-1-2-6------000000000-1-2-6-----7-----------------|


E|-------------------------------------------------------------|
B|-------------------------------------------------------------|
G|-------------------------------------------------------------|
D|--0-0-0--9-7-6--666666666666---------------------------------|
A|--0-0-0--9-7-6--666666666666---------------------------------|
D|--0-0-0--9-7-6--666666666666---------------------------------|
[ Tab from: http://www.guitartabs.cc/tabs/d/damageplan/breathing_new_life_tab_ver_4.html ]
E|-------------------------------------------------------------|
B|-------------------------------------------------------------|
G|-------------------------------------------------------------|
D|--00000--6-9-7-6---4-0-3---00000-----------------------------|
A|--00000--6-9-7-6---4-0-3---00000-----------------------------|
D|--00000--6-9-7-6---4-0-3---00000-----------------------------|

GUITAR SOLO
E|----------------------------------------------------------12-----15b--|
B|------------------------------------------------------12-----12-------|
G|------------------------------------------------12------12------------|
D|--14b-12-15-12----15-12----15-12----------12-------12-----------------|
A|---------------12-------11-------11-11-10----12-----------------------|
D|----------------------------------------------------------------------|

E|------------------------------------------------------------12----13b-17-|
B|------------------------------------------------------12-------12--------|
G|------------------------------------------------12-------12--------------|
D|--14b-12-15-12----15-12----15-12----------12-------12--------------------|
A|---------------12-------11-------11-11-10----12--------------------------|
D|-------------------------------------------------------------------------|

E|--17-17-17-17-15-17-17-17-17-17------------------------------------------|
B|-------------------------------------------------------------------------|
G|-------------------------------------------------------------------------|
D|-------------------------------------------------------------------------|
A|-------------------------------------------------------------------------|
D|-------------------------------------------------------------------------|

OUTRO
E|-------------------------------------------------------------------------|
B|-------------------------------------------------------------------------|
G|-------------------------------------------------------------------------|
D|--6/0--6/0--6/0--6/0-----6/0---------------------------------------------|
A|--6/0--6/0--6/0--6/0-----6/0---------------------------------------------|
D|--6/0--6/0--6/0--6/0-----6/0---------------------------------------------|

E|-------------------------------------------------------|
B|-------------------------------------------------------|
G|-------------------------------------------------------|
D|--3-4-3-1-2-5-6-2-5-6-2-5-6-2-5-6----------------------|
A|--3-4-3-1-2-5-6-2-5-6-2-5-6-2-5-6----------------------|
D|--3-4-3-1-2-5-6-2-5-6-2-5-6-2-5-6----------------------|

ALL DONE.                   R.I.P DIMEBAG DARREL
Comments