Damageplan - Breathing New Life Chords & Tabs

 

Breathing New Life Chords & Tabs

Damageplan Chords & Tabs

Version: 1 Type: Bass Tab 0 ratings
1 star 2 stars 3 stars 4 stars 5 stars
comments

Breathing New Life Bass Tab

Band- Damageplan
Song- Breathing New Life

Tune bass down one and a half steps (Db Gb B E)


Riff 1
|----------------------------------------------------|
|----------------------------------------------------|
|----------------------------------------------------|2x
|-3-4-1-2-1-0--3-4-1-2-1-0--3-4-1-2-1-0--3-4-1-2-5-6-|


Riff 2
|----------------------------------------------------------|
|----------------------------------------------------------|
|--------------------------------------------------1-1-1-1-|2x
|-0--0-0-0-2-3-3-3-3-3-3-3-3-3--0--0-0-0-2-3-3-3-3---------|

[ Tab from: http://www.guitartabs.cc/tabs/d/damageplan/breathing_new_life_btab.html ]
Riff 3
|----------------------------------------------------|
|----------------------------------------------------|
|----------------------------------------------------|2x
|-0-0-0-0-0-0-0-0-0-2-3-6--0-0-0-0-0-0-0-0-0-2-3-6-6-|


Riff 4
|---------------------------------|
|-------0------------0------------|
|-----2---2-1------2---2-1--------|
|-0-0----------0-0---------3-0-3--|


Riff 5
|---------------------------------|
|-------0------------0------------|
|-----2---2-1------2---2----------|
|-0-0----------0-0----------------|


Repeat
Riff 1
Riff 2 2x
Riff 3 2x
Riff 4
Riff 5
Riff 1 2x
Riff 2 2x
Riff 4 2x

Riff 6
|-------------------------------------|
|-------------------------------------|
|-------------------------------------|
|-/15\---/15\---/15\---/15\--/15\8--0-|

Repeat
Riff 2 2x
Riff 4
Riff 5
Riff 1 5x

Riff 7
|-------------------|
|-------------------|
|---0-1---0-1---0-1-|
|-2-----2-----2-----|
Comments