Damaged - Slow Chords & Tabs

 

Slow Chords & Tabs

Damaged Chords & Tabs

Version: 1 Type: Tab 0 ratings
1 star 2 stars 3 stars 4 stars 5 stars
comments

Slow Tab

================================================================================
         Title : Slow (Heretic)
        Artist : Damaged
         Album : Do not Spit
Transcribed by : By DimeBolt (dime_bolt@email.com)
================================================================================


Tune down 1 1/2 steps (Db,Gb,B,E,Ab,Db)

1||-----------------||-----------------||-----------------|-----------------||
2||-----------------||-----------------||-----------------|-----------------||
3||-----------------||-----------------||-----------------|-----------------||
4||-----------------||-5-------5---6-3-||-----------------|-1-----------4---||
5||-3-------3---4-1-||-3-3-5-6-3-4-4-1-||-5-------4-5-4---|-1-----------2---||
6||---1-3-4---2-----||---1-3-4---2-----||-3-------2-3-2---|---------3-2-----||
[ Tab from: http://www.guitartabs.cc/tabs/d/damaged/slow_tab.html ]
                                                           Lead in to next part
1||-----------------|-----------------||-----------------||------------------||
2||-----------------|-----------------||-----------------||------------------||
3||-----------------|-----------------||-----------------||------------------||
4||-----------------|-1-----------4---||---2-3-2-2-------||------------------||
5||-5-------4-5-4---|-1-1-1-1-2-1-2---||-2-2-3-2-2-3-2---||-33------33--4411-||
6||-3-3-3-3-2-3-2---|-----------------||-0---------1-0---||---113344--22-----||

    * Scoop the mids!          * dont play 5 first time
1||-------------------------||-------------------------||
2||-------------------------||-------------------------||
3||-------------------------||-------------------------||
4||-------------------------||-------------------------||
5||-2-------2-------4-5-4---||-5-5-4---4-3---3-2-2-3-4-||
6||-0---0-0-0---0-0-2-3-2---||-3-----2-----1-----0-1-2-||


1||------------------|-----------------||-----------------|-----------------|---------||
2||------------------|-----------------||-----------------|-----------------|---------||
3||------------------|-----------------||-----------------|-----------------|---------||
4||------------------|-----------------||-2-----1---------|-----------------|---------||
5||---------44554444-|-11111111----4---||-2-----1---2-3-2-|-3-5-2-2-3-2-3-5-|-2-2-3-5-||
6||-33333333---------|---------2-1-2---||-----------0-1-0-|-1-3-0-0-1-0-1-3-|-0-0-1-3-||
Comments