Dalby Ashley - Crimson Pimpernel Chords & Tabs

 

Crimson Pimpernel Chords & Tabs

Dalby Ashley Chords & Tabs

Version: 1 Type: Tab 0 ratings
1 star 2 stars 3 stars 4 stars 5 stars
comments

Crimson Pimpernel Tab

=== The Timeless Deity's Ashley Dalby Tablature ===
http://hometown.aol.com/AncientPurgatory

Crimson Pimpernel
Ashley Dolby  - Timeless Deity (2002)

|---0h1p0-0h1p0-1-------0h1p0-0h1p0-1----------------------
|-----------------3-------------------3--------------------
|-------------------2-------------------2------------------
|-0-------------0-----0-------------0----------------------
|----------------------------------------------------------
|----------------------------------------------------------

|--------------------------------------------------------------------
|----------6-----5-----------------------------6-----5-----5--6p5----
|----7--5-----5-----7-----7-----7--------7--5-----5-----7----------7-
|-0--------------------7--------------0------------------------------
|----------------------------8-----7---------------------------------
|--------------------------------------------------------------------
[ Tab from: http://www.guitartabs.cc/tabs/d/dalby_ashley/crimson_pimpernel_tab.html ]
|---0h1p0-0h1p0--------------------------------------------
|----------------------------------------------------------
|----------------------------------------------------------
|-0--------------------------------------------------------
|---------------1---------3--------------------------------
|----------------------------------------------------------

|----------------------------------------------------------
|---------------1-------3----------------------------------
|-----0-2p0-----------2------------------------------------
|---3-------3-2---2-0-----0-2-3-0----/7-5-3-0--------------
|-1--------------------------------3-----------------------
|----------------------------------------------------------

|-----------------------------------------------------------------
|-----------------------------------------------------------------
|-----0-2p0-------5----------------------5---------2--------------
|---3-------3-5/7---7----0--2--3--5--5/7---7-5-3-5---3-0-5-3---0--
|-1-------------------3--------------------------------------3----
|-----------------------------------------------------------------

|----------------------------------------------------------
|-6p5--5--8---------6p5------------------------------------
|------------7-----------7--5--7---------------------------
|----------------------------------------------------------
|----------------------------------------------------------
|----------------------------------------------------------
Comments