Dakona - Good Ive Got A Lot To Learn Chords & Tabs

 

Good Ive Got A Lot To Learn Chords & Tabs

Dakona Chords & Tabs

Version: 1 Type: Tab 0 ratings
1 star 2 stars 3 stars 4 stars 5 stars
comments

Good Ive Got A Lot To Learn Tab

Band  : Dakona
Song  : Good (I've Got a Lot to Learn)
Track : #6/13
Album : Perfect Change ('2003)

sup yall no one tabs dakona they should dakona kicks ass well i figured this out
just basic power chords didnt get the picking but you get the jist of it


verse
E---------------------------------------------------------
B---------------------------------------------------------
G------6-6------------------------------------------------
D-4----6-6---8--9---*-------------------------------------
A-4----4-4---8--9---*-------------------------------------
E-2----------6--7---*-------------------------------------


chorus
[ Tab from: http://www.guitartabs.cc/tabs/d/dakona/good_ive_got_a_lot_to_learn_tab.html ]
E-----------------------------------------------------------
B-----------------------------------------------------------
G-----6-----------------------------------------------------
D-4---6--8--9-----------------------------------------------
A-4---4--8--9-----------------------------------------------
E-2------6--7-----------------------------------------------


bridge

E--------------------------------------------------------------
B--------------------------------------------------------------
G-6--4---------------------------------------------------------
D-6--4--x5-------8--9------------------------------------------
A-4--2-----------8--9------------------------------------------
E----------------6--7------------------------------------------
Comments