Daggermouth - Glendale Pd Hates Daggermouth Chords & Tabs

 

Daggermouth Chords & Tabs

Version: 1 Type: Tab 0 ratings
1 star 2 stars 3 stars 4 stars 5 stars
comments

Glendale Pd Hates Daggermouth Tab

   
--------------------------------------------------------------------------
              GLENDALE P.D. HATES DAGGERMOUTH - daggermouth
--------------------------------------------------------------------------

Band: Daggermouth
Album: Turf Wars (Smallman Records, 2006)
Song: Glendale P.D. Hates Daggermouth

Tabbed by Kyle T.
Contact: pants_me@hotmail.com
Site: www.wqhosting.com/~ohpkyle/

E-flat (Standard tuning, half-step down: EbAbDbGbbbeb)

Legend:

  .   - Palm mute                            o     - Repeat bar
  x   - Dead note                            o
  _   - Let ring                           _______
  %   - Rest                              |1,2...  - Endings for repeats
  /   - Slide up                             #     - Harmonic
  \   - Slide down                           Nx    - Number of repeats
  h   - Hammer on                            v     - Vibrato
  b   - bend                                 *     - Staccato
  r   - release                              n     - Bar number
 (x)  - Note tied over from previous bar     ^     - Pitch harmonic
  

---

Note:   I have a hard time typing out the timing of Daggermouth songs. The
4-2-0 note series on the A-string is iffy. It's definitely not right, but
it's in the right general area.

---

Chords Used:

      E5        G#5     A5  B5 C#5 D#5 
e|--------------------------------------|
b|------------------9-------------------|
G|--------9---------8-----------6---8---|
D|--2-and-9---6-and-6---7---9---6---8---|
A|--2-----7---6---------7---9---4---6---|
E|--0---------4---------5---7-----------|


                                                                    Key - E
                                                        Tempo - approx. 205
Intro (0:00-0:09):

 4/4
eb|-----------------|-----------------|-----------------|-----------------|
bb|-----------------|-----------------|-----------------|-----------------|
Gb|-----------------|-----------------|-----------------|-----------------|
Db|-2-----2-%-2-%-2-|(2)--------------|-2-----2-%-2-%-2-|(2)--------------|
Ab|-2-222-2---2---2-|(2)--4-2-0-2-0-4-|-2-222-2---2---2-|(2)--4-2-0-2-0-2-|
Eb|-0-000-0---0---0-|(0)--------------|-0-000-0---0---0-|(0)--------------|
  |   ...                                 ...                             |
  |                                                                       |
eb|-----------------|-----------------|-----------------|-----------------|
bb|-----------------|-----------------|-----------------|-----------------|
Gb|-9-----9---9---9-|(9)--9-9-9-9-9-9-|-9-----9---9---9-|(9)--9-9-9-9-9-9-|
Db|-9-999-9-%-9-%-9-|(9)--9-9-9-9-9-9-|-9-999-9-%-9-%-9-|(9)--9-9-9-9-9-9-|
Ab|-7-777-7---7---7-|(7)--7-7-7-7-7-7-|-7-777-7---7---7-|(7)--7-7-7-7-7-7-|
Eb|-----------------|-----------------|-----------------|-----------------|


eb|-----------------|-----------------|-----------------|-----------------|
bb|-----------------|-----------------|-----------------|-----------------|
Gb|-----------------|-----------------|-----------------|-----------------|
Db|-2-----2-%-2-%-2-|(2)--------------|-2-----2-%-2-%-2-|(2)--------------|
Ab|-2-222-2---2---2-|(2)--4-2-0-2-0-4-|-2-222-2---2---2-|(2)--4-2-0-2-0---|
Eb|-0-000-0---0---0-|(0)--------------|-0-000-0---0---0-|(0)------------0-|
  |   ...                                 ...                             |
  |                                                                       |
eb|-----------------|-----------------|-----------------|-----------------|
bb|-----------------|-----------------|-----------------|-----------------|
Gb|-9-----9---9---9-|(9)--9-9-9-9-9-9-|-9-----9---9---9-|(9)--9-9-9-9-9-9-|
Db|-9-999-9-%-9-%-9-|(9)--9-9-9-9-9-9-|-9-999-9-%-9-%-9-|(9)--9-9-9-9-9-9-|
Ab|-7-777-7---7---7-|(7)--7-7-7-7-7-7-|-7-777-7---7---7-|(7)--7-7-7-7-7-7-|
Eb|-----------------|-----------------|-----------------|-----------------|


eb|-----------------|
bb|-----------------|
Gb|-----------------|
Db|-%-2-%-----------|
Ab|---2-------------|
Eb|---0-------------|
  |                 |
  |                 |
eb|-----------------|
bb|-----------------|
Gb|---9-----PICK----|
Db|-%-9----SCRAPE---|
Ab|---7-------------|
Eb|-----------------|


Verse (0:09-0:40):
                                                         _________________
                                                        |1.
eb|-----------------|-----------------|-----------------|-----------------|
bb|-----------------|-----------------|-----------------|-----------------|
Gb|o9-9-9-9-9-9-9-9-|-6-6-6-6---------|-----------------|----------------o|
Db|o9-9-9-9-9-9-9-9-|-6-6-6-6-9-9-9-9-|-7-7-7-7-9-9-9-9-|-2-2-2-2--------o|
Ab|-7-7-7-7-7-7-7-7-|-4-4-4-4-9-9-9-9-|-7-7-7-7-9-9-9-9-|-2-2-2-2--4-2-0--|
Eb|-----------------|---------7-7-7-7-|-5-5-5-5-7-7-7-7-|-0-0-0-0---------|
  |                                                                       |
  |                                                                       |
eb|-----------------|-----------------|-----------------|-----------------|
bb|-----------------|-----------------|-----------------|-----------------|
Gb|o9-9-9-9-9-9-9-9-|-6-6-6-6---------|-----------------|----------------o|
Db|o9-9-9-9-9-9-9-9-|-6-6-6-6-9-9-9-9-|-7-7-7-7-9-9-9-9-|-2-2-2-2-2-2-2-2o|
Ab|-7-7-7-7-7-7-7-7-|-4-4-4-4-9-9-9-9-|-7-7-7-7-9-9-9-9-|-2-2-2-2-2-2-2-2-|
Eb|-----------------|---------7-7-7-7-|-5-5-5-5-7-7-7-7-|-0-0-0-0-0-0-0-0-|

   _________________
  |2.
eb|-----------------|-----------------|-----------------|-----------------|
bb|-----------------|-----------------|-----------------|-----------------|
Gb|-----------------|-----------------|-----------------|-9--9--8--8--6--6|
Db|-2222-%-2-%-2-%--|-6-6-6-6-6-6-6-6-|-7-7-7-7-7-7-7-7-|-----------------|
Ab|-2222---2---2----|-6-6-6-6-6-6-6-6-|-7-7-7-7-7-7-7-7-|-7--7--6--6--4--4|
Eb|-0000---0---0----|-4-4-4-4-4-4-4-4-|-5-5-5-5-5-5-5-5-|-----------------|
  |                                                                       |
  |                                                                       |
eb|-----------------|-----------------|-----------------|-----------------|
bb|-----------------|-----------------|-----------------|-----------------|
Gb|-9999---9---9----|-----------------|-----------------|-9-9-9-9-9-9-9-9-|
Db|-9999-%-9-%-9-%--|-6-6-6-6-6-6-6-6-|-7-7-7-7-7-7-7-7-|-9-9-9-9-9-9-9-9-|
Ab|-7777---7---7----|-6-6-6-6-6-6-6-6-|-7-7-7-7-7-7-7-7-|-7-7-7-7-7-7-7-7-|
Eb|-----------------|-4-4-4-4-4-4-4-4-|-5-5-5-5-5-5-5-5-|-----------------|


eb|-----------------|-----------------|-----------------|-----------------|
bb|-----------------|-----------------|-----------------|-----------------|
Gb|-----------------|-----------------|-----------------|-----------------|
Db|-7-7-7-7-7-7-7-7-|-6-6-6-6-6-6-6-6-|-7-7-7-7-7-7-7-7-|-2-%-2-%-2-------|
Ab|-7-7-7-7-7-7-7-7-|-6-6-6-6-6-6-6-6-|-7-7-7-7-7-7-7-7-|-2---2---2-------|
Eb|-5-5-5-5-5-5-5-5-|-4-4-4-4-4-4-4-4-|-5-5-5-5-5-5-5-5-|-0---0---0-------|
  |                                                                       |
  |                                                                       |
eb|-----------------|-----------------|-----------------|-------------0---|
bb|-9-9-9-9-9-9-9-9-|-----------------|-----------------|---------------0-|
Gb|-8-8-8-8-8-8-8-8-|-----------------|-----------------|-----------------|
Db|-6-6-6-6-6-6-6-6-|-6-6-6-6-6-6-6-6-|-7-7-7-7-7-7-7-7-|------%----------|
Ab|-----------------|-6-6-6-6-6-6-6-6-|-7-7-7-7-7-7-7-7-|-----------------|
Eb|-----------------|-4-4-4-4-4-4-4-4-|-5-5-5-5-5-5-5-5-|-----------------|


eb|-----------------|-----------------|-----------------|-----------------|
bb|-----------------|-----------------|-----------------|-----------------|
Gb|-----------------|-----------------|-----------------|-----------------|
Db|-2-%-2-%-2-------|-7---9---2--%----|-2-%-2-%-2-------|-2-%-2-%-2-------|
Ab|-2---2---2-------|-7---9---2-------|-2---2---2-------|-2---2---2-------|
Eb|-0---0---0-------|-5---7---0-------|-0---0---0-------|-0---0---0-------|
  |                                                                       |
  |                                                                       |
eb|-------------0---|-------------0---|-------------0---|-------------0---|
bb|---------------0-|---------------0-|---------------0-|---------------0-|
Gb|-----------------|-----------------|-----------------|-----------------|
Db|------%----------|----%------------|----%------------|----%------------|
Ab|-----------------|-----------------|-----------------|-----------------|
Eb|-----------------|-----------------|-----------------|-----------------|

[ Tab from: http://www.guitartabs.cc/tabs/d/daggermouth/glendale_pd_hates_daggermouth_tab.html ]
eb|-----------------|-----------------|-----------------|
bb|-----------------|-----------------|-----------------|
Gb|-----------------|-----------------|-----------------|
Db|-7---9---2-------|(2)--------------|(2)--------------|
Ab|-7---9---2-------|(2)--------------|(2)--------------|
Eb|-5---7---0-------|(0)--------------|(0)--------------|
  |                                                     |
  |                                                     |
eb|-----------------|-----------------|-----------------|
bb|-----------------|-----------------|-----------------|
Gb|-----------------|---------/9------|(9)--------PICK--|
Db|--------%--------|---------/9------|(9)-------SCRAPE-|
Ab|-----------------|---------/7------|(7)--------------|
Eb|-----------------|-----------------|-----------------|


    Well we finally made it home from a four-week battle out on the road.
    Amazing shows, overshadowed by inflated egos.

    I never thought I'd hear myself say that. I'm just so happy to be home again.
    But I still know being back will get old. But I still know I'm raring to go.


Breakdown (0:40-1:20):

eb|-----------------|-----------------|-----------------|-----------------|
bb|-----------------|-----------------|-----------------|-----------------|
Gb|o----------------|-----------------|-2-2-------2---2-|-----------------|
Db|o2-2---%---2---2-|--------%--------|-2-2---%---2-%-2-|--------%--------|
Ab|-2-2-------2-%-2-|-----------------|-0-0-------0---0-|-----------------|
Eb|-0-0-------0---0-|-----------------|-----------------|-----------------|
  | . .       .   .                     . .       .   .                   |
  |                                                                       |
eb|--------0--------|-----0---2-0-----|-------0---------|-----0---4---2---|
bb|-----0-----------|---0---0-----4-0-|-----0-----------|---0---0-4---4---|
Gb|o----------------|-----------------|-----------------|-----------------|
Db|o%---------%-----|-%---------------|-%---------%-----|-%---------------|
Ab|-----------------|-----------------|-----------------|-----------------|
Eb|-----------------|-----------------|-----------------|-----------------|


eb|-----------------|-----------------|-----------------|-----------------|
bb|-----------------|-----------------|-----------------|-----------------|
Gb|-6-6-------6---6-|-----------------|-4-4-------4---4-|----------------o|
Db|-6-6---%---6-%-6-|--------%--------|-4-4---%---4-%-4-|--------%-------o|
Ab|-4-4-------4---4-|-----------------|-2-2-------2---2-|-----------------|
Eb|-----------------|-----------------|-----------------|-----------------|
  | . .       .   .                     . .       .   .                   |
  |                                                                       |
eb|--------0--------|-----0---2-0-----|-------0---------|-----0---4---2---|
bb|-----0-----------|---0---0-----4-0-|-----0-----------|---0---0-4---4---|
Gb|-----------------|-----------------|-----------------|----------------o|
Db|-%---------%-----|-%---------------|-%---------%-----|-%--------------o|
Ab|-----------------|-----------------|-----------------|-----------------|
Eb|-----------------|-----------------|-----------------|-----------------|


eb|-----------------|-----------------|-----------------|-----------------|
bb|-----------------|-----------------|-----------------|-----------------|
Gb|o----------------|-----------------|-2-2-2-2---2---2-|---2-2-2-2-2-2-2-|
Db|o2-2-2-2-%-2-%-2-|-%-2-2-2-2-2-2-2-|-2-2-2-2-%-2-%-2-|-%-2-2-2-2-2-2-2-|
Ab|-2-2-2-2---2---2-|---2-2-2-2-2-2-2-|-0-0-0-0---0---0-|---0-0-0-0-0-0-0-|
Eb|-0-0-0-0---0---0-|---0-0-0-0-0-0-0-|-----------------|-----------------|
  | . . . .   .   .     . . . . . . . . . . . .   .   .     . . . . . . . |
  |                                                                       |
eb|-----------------|-----0---2-0-----|-----------------|-----0---4---2---|
bb|-----------------|---0---0-----4-0-|-----------------|---0---0-4---4---|
Gb|o----------------|-----------------|-----------------|-----------------|
Db|o-------%--------|-%---------------|--------%--------|-%---------------|
Ab|-----------------|-----------------|-----------------|-----------------|
Eb|-----------------|-----------------|-----------------|-----------------|


eb|-----------------|-----------------|-----------------|-----------------|
bb|-----------------|-----------------|-----------------|-----------------|
Gb|-6-6-6-6---6---6-|---6-6-6-6-6-6-6-|-4-4-4-4---4---4-|---4-4-4-4-4-4-4o|
Db|-6-6-6-6-%-6-%-6-|-%-6-6-6-6-6-6-6-|-4-4-4-4-%-4-%-4-|-%-4-4-4-4-4-4-4o|
Ab|-4-4-4-4---4---4-|---4-4-4-4-4-4-4-|-2-2-2-2---2---2-|---2-2-2-2-2-2-2-|
Eb|-----------------|-----------------|-----------------|-----------------|
  | . . . .   .   .     . . . . . . . . . . . .   .   .     . . . . . . . |
  |                                                                       |
eb|-----------------|-----0---2-0-----|-----------------|-----0---4---2---|
bb|-----------------|---0---0-----4-0-|-----------------|---0---0-4---4---|
Gb|-----------------|-----------------|-----------------|----------------o|
Db|--------%--------|-%---------------|--------%--------|-%--------------o|
Ab|-----------------|-----------------|-----------------|-----------------|
Eb|-----------------|-----------------|-----------------|-----------------|

    It's just so hard to adjust back to a normal life. Everything's been
    taken from me, depending on my best friends to survive. I wouldn't change
    a single moment -- trainwreck I call my life. I'd make all the same
    sacrifices to see kids scream the words I write.
   
    I never thought that we'd be here, can only hope that you still care.


Outro (1:21-1:37):

eb|-----------------|-----------------|-----------------|-----------------|
bb|-----------------|-----------------|-----------------|-----------------|
Gb|-----------------|-----------------|-2-2-2-2-2-2-2-2-|-2-2-2-2-4-6-----|
Db|-2-2-2-2-2-2-2-2-|-2-2-2-2-2-2-2-2-|-2-2-2-2-2-2-2-2-|-2-2-2-2-4-6-----|
Ab|-2-2-2-2-2-2-2-2-|-2-2-2-2-2-2-2-2-|-0-0-0-0-0-0-0-0-|-0-0-0-0-2-4-----|
Eb|-0-0-0-0-0-0-0-0-|-0-0-0-0-0-0-0-0-|-----------------|-----------------|
  |                                                                       |
  |                                                                       |
eb|-----------------|-----------------|-----------------|-----------------|
bb|-----------------|-----------------|-----------------|-----------------|
Gb|-----------------|-----------------|-2-2-2-2-2-2-2-2-|-2-2-2-2-4-6-----|
Db|-2-2-2-2-2-2-2-2-|-2-2-2-2-2-2-2-2-|-2-2-2-2-2-2-2-2-|-2-2-2-2-4-6-----|
Ab|-2-2-2-2-2-2-2-2-|-2-2-2-2-2-2-2-2-|-0-0-0-0-0-0-0-0-|-0-0-0-0-2-4-----|
Eb|-0-0-0-0-0-0-0-0-|-0-0-0-0-0-0-0-0-|-----------------|-----------------|


eb|-----------------|-----------------|-----------------|-----------------|
bb|-----------------|-----------------|-----------------|-----------------|
Gb|-2-2-2-2-2-2-2-2-|-2-2-2-2-4-6-4---|-----------------|---------------2-|
Db|-2-2-2-2-2-2-2-2-|-2-2-2-2-4-6-4-2-|(2)-2-2-2-2-2-2-2|-2-2-2-2-2-2-2-2-|
Ab|-0-0-0-0-0-0-0-0-|-0-0-0-0-2-4-2-2-|(2)-2-2-2-2-2-2-2|-2-2-2-2-2-2-2-0-|
Eb|-----------------|---------------0-|(0)-0-0-0-0-0-0-0|-0-0-0-0-0-0-0---|
  |                                                                       |
  |                                                                       |
eb|-----------------|-----------------|-----------------|-----------------|
bb|-----------------|-----------------|-----------------|-----------------|
Gb|-2-2-2-2-2-2-2-2-|-2-2-2-2-4-6-4---|-----------------|---------------2-|
Db|-2-2-2-2-2-2-2-2-|-2-2-2-2-4-6-4-2-|(2)-2-2-2-2-2-2-2|-2-2-2-2-2-2-2-2-|
Ab|-0-0-0-0-0-0-0-0-|-0-0-0-0-2-4-2-2-|(2)-2-2-2-2-2-2-2|-2-2-2-2-2-2-2-0-|
Eb|-----------------|---------------0-|(0)-0-0-0-0-0-0-0|-0-0-0-0-0-0-0---|


eb|-----------------|-----------------|-----------------|-----------------|
bb|-----------------|-----------------|-----------------|-----------------|
Gb|(2)-2-2-2-2-2-2-2|-2-2-2-2-4-6---2-|(2)-2-2-2-2-2-2-2|-2-2-2-2-4-6-4---|
Db|(2)-2-2-2-2-2-2-2|-2-2-2-2-4-6---2-|(2)-2-2-2-2-2-2-2|-2-2-2-2-4-6-4-2-|
Ab|(0)-0-0-0-0-0-0-0|-0-0-0-0-2-4---0-|(0)-0-0-0-0-0-0-0|-0-0-0-0-2-4-2-2-|
Eb|-----------------|-----------------|-----------------|---------------0-|
  |                                                                       |
  |                                                                       |
eb|-----------------|-----------------|-----------------|-----------------|
bb|-----------------|-----------------|-----------------|-----------------|
Gb|(2)-2-2-2-2-2-2-2|-2-2-2-2-4-6---2-|(2)-2-2-2-2-2-2-2|-2-2-2-2-4-6-4---|
Db|(2)-2-2-2-2-2-2-2|-2-2-2-2-4-6---2-|(2)-2-2-2-2-2-2-2|-2-2-2-2-4-6-4-2-|
Ab|(0)-0-0-0-0-0-0-0|-0-0-0-0-2-4---0-|(0)-0-0-0-0-0-0-0|-0-0-0-0-2-4-2-2-|
Eb|-----------------|-----------------|-----------------|---------------0-|


 3/8
eb|-----------------|
bb|-----------------|
Gb|-----------------|
Db|(2)-%------------|
Ab|(2)--------------|
Eb|(0)--------------|
  |                 |
  |                 |
eb|-----------------|
bb|-----------------|
Gb|-----------------|
Db|(2)-%------------|
Ab|(2)--------------|
Eb|(0)--------------|

    So turn the stereo up and drive, we'll meet you there. It's just one more day.
    And all I've got to say is that you guys are all I need.
Comments