Daft Punk - Something About Us Chords & Tabs

 

Something About Us Chords & Tabs

Daft Punk Chords & Tabs

Version: 2 Type: Tab

Something About Us Tab

Daft Punk - Something About Us
Tuning: Standard EBGDAE (High to Low)
Tabbed by: Will Sharp
Email: chimaira_tool@hotmail.com


Line 6 FM4 is needed for the FX on this song.

INTRO:(You need the Line 6 FM4 set on Voice Box)

		     x22  End on:
E|---------------------|---------------------------------------------------|
B|---------------------|---------------------------------------------------|
G|---------------------|---------------------------------------------------|
D|--7--3---------------|-------7--3----------------------------------------|
A|--------5--0--0--3---|-------------5--0----------------------------------|
E|---------------------|---------------------------------------------------|
PM| .  .  .  .  .  .	       .  .  .  .

[ Tab from: http://www.guitartabs.cc/tabs/d/daft_punk/something_about_us_tab_ver_2.html ]
OVERLAY: Come in on x15 repeat of above riff. (Wah effect)		    X2
E|-------------------------------------------------------------------------|
B|---------------------8--------8--10----10p8--8---------------------------|
G|--7--9--10----9--10-------10--------------------10--10-------------------|
D|-------------------------------------------------------------------------|
A|-------------------------------------------------------------------------|
E|-------------------------------------------------------------------------|


BRIDGE: (pick a suitable effect from the FM4)
E|-----------------10------------------------------------------------10-12~|
B|-------------10~----13~--------10---------10------------------/10~-------|
G|-------10-12-------------10-12----10-12~----12-12-10-10------------------|
D|-10-12-------------------------------------------------12-10-12----------|
A|-------------------------------------------------------------------------|
E|-------------------------------------------------------------------------|

					    This is the beginning of the riff
E|-12-13-12-------------------------------|-----------------10-------------|
B|----------13-10~------10-13-10-10-------|------------10~-----13~---------|
G|--------------------10------------10----|------10-12---------------------|
D|------------------10-----------------12-|-10-12--------------------------|
A|----------------------------------------|--------------------------------|
E|----------------------------------------|--------------------------------|

On the 2nd repeat of the BRIDGE (at the beginning) the OVERLAY is played over.

On the 3rd repeat of the BRIDGE (again at the beginning) the INTRO is played.


Thats it, simple song an tab.  Questions, comments email me.