Daft Punk - Robot Rock Chords & Tabs

 

Robot Rock Chords & Tabs

Daft Punk Chords & Tabs

Version: 4 Type: Tab

Robot Rock Tab

Intro
Played 4 times
1|-------------------|
2|-------------------|
3|-7-7-7-7-7-7-7-7-5-|
4|-7-7-7-7-7-7-7-7-5-|
5|-5-5-5-5-5-5-5-5-3-|
6|-------------------|
Main Riff 
Played 8 times
1|------------------------------------|
2|------------------------------------|
3|-7--9-7--------7-7-7--9-7-----------|
4|-7------9------7-7-7------9---------|
5|-5--------8-7--5-5-5--------8-7-5-3-|
6|------------------------------------|

Bridge
1|-----------------|
2|-----------------|
3|-7-5-7-5-7-5-7-5-|
4|-7-5-7-5-7-5-7-5-|
5|-5-3-5-3-5-3-5-3-|
6|-----------------|
Main Riff
Played 8 Times
[ Tab from: http://www.guitartabs.cc/tabs/d/daft_punk/robot_rock_tab_ver_4.html ]
Bridge 2
Played 4 Times
Note: At the fourth time, the last riff doesn't sound.
1|-----------------------|
2|-----------------------|
3|-7---7-7-7-------------|
4|-7---7-7-7-------------|
5|-5---5-5-5---5-5-3-0---|
6|---------------------3-|
Main Riff
Played 20 times

Bridge 3
              |This played 7 times
              |Note: The last time the last D Chord is not played.
1|------------|---------|
2|------------|---------|
3|-7--7-5-7-7-|-7-5-7-7-|
4|-7--7-5-7-7-|-7-5-7-7-|
5|-5--5-3-5-5-|-5-3-5-5-|
6|------------|---------|
Main Riff
Played 17 Times
Note:The 17 time, you only play the first D Chord.