Daft Punk - Around The World Chords & Tabs

 

Around The World Chords & Tabs

Daft Punk Chords & Tabs

Version: 8 Type: Bass Tab 0 ratings
1 star 2 stars 3 stars 4 stars 5 stars
comments

Around The World Bass Tab

-------------------------------------------------------------------------------
                            Around the world - Daft Punk
-------------------------------------------------------------------------------
Tabbed by: Murija 

Tuning: EADG

G|---------------------------------------------------------------------------|
D|--4-2----------------------------------------------------------------------|
A|------5-3-2----------------------------------------------------------------|
E|------------5-3------------------------------------------------------------|
[ Tab from: http://www.guitartabs.cc/tabs/d/daft_punk/around_the_world_btab_ver_8.html ]
G|---------------------------------------------------------------------------|
D|------------------------2-2-2-2-2h4p2--------------------------------------|
A|------------2h3-3-3-3-5---------------5-3-2--------------------------------|
E|----5-5-5-5---------------------------------5-3----------------------------|

G|--------7h9--7-7-7h9-------------------------------------------------------|
D|----------------------10-10---9--s9-5--------------------------------------|
A|-------7----7-7-7----------------------------------------------------------|
E|---------------------8--8--8-7-7-------------------------------------------|

G|--------7h9--7-7-7h9-------------------------------------------------------|
D|----------------------10-10---9--s7-5--------------------------------------|
A|-------7----7-7-7----------------------------------------------------------|
E|---------------------8--8--8-7-7-------------------------------------------|
Comments