Daft Punk - Aerodynamic Chords & Tabs

 

Aerodynamic Chords & Tabs

Daft Punk Chords & Tabs

Version: 9 Type: Tab 0 ratings
1 star 2 stars 3 stars 4 stars 5 stars
comments

Aerodynamic Tab

This are the parts that guitars appear.....

1st part (tapping your ass out really fast,repeating it)

e|-------------------------------------------------|
B|--2---------2------------------------------------|
G|------2/4-3--------------------------------------|
D|-------------------------------------------------|
A|-------------------------------------------------|
E|-------------------------------------------------|

Guitar solo

e|--------------------------------2--2--2---------------|
B|-2--2--2--2-----2--2--2--2----4--4--4--4-4-0-4-0-4-0--|
G|--3--3--3---3-----1--1--1--1--------------------------|
D|------------------------------------------------------|
A|------------------------------------------------------|
E|------------------------------------------------------|
[ Tab from: http://www.guitartabs.cc/tabs/d/daft_punk/aerodynamic_tab_ver_9.html ]
e|--9---9--9--9--9---9--9--9---11-14-11-14-11-14-11-14-11--|
B|---6---6--6--6--6---6--6--6------------------------------|
G|---------------------------------------------------------|
D|---------------------------------------------------------|
A|---------------------------------------------------------|
E|---------------------------------------------------------|

e|8-11-8-11-8-11-8-11------------------------------|
B|-------------------------------------------------|
G|-------------------------------------------------|
D|-------------------------------------------------|
A|-------------------------------------------------|
E|-------------------------------------------------|

(Add the first part to the solo part for the next)

i think there's still something missing in the song,cuz i think there are two 
im not sure,im gonna have to check it out n see if i can do it...enjoy this one for now...
Comments