Daedalian - Darker In The Light Chords & Tabs

 

Darker In The Light Chords & Tabs

Daedalian Chords & Tabs

Version: 1 Type: Tab 0 ratings
1 star 2 stars 3 stars 4 stars 5 stars
comments

Darker In The Light Tab

#-----------------------------------------------------------------------------#
#-- File created with Instab - http://www.pconline.com/~smcarey/instab.html --#
#-----------------------------------------------------------------------------#

Author/Artist: Daedalian
Title: Darker in the Light
Album: Rigor Mortis
Transcribed by: Brian Cunningham
Email: bcunny2000@yahoo.co.uk

Anti-racist tune off re-named debut album "Rigor Mortis"!

Intro

-|-----------------|--------------------------|-------------------------------|
-|-----------------|--------------------------|-------------------------------|
-|-55-77-88-10--x2-|---5-----7--------10------|-55-77-------------------------|
-|-55-77-88-10-----|-----5-----7---------10---|-55-77-3-----------------------|
-|-33-55-66-8------|-33----55----66-8-------8-|-33-55-3-----------------------|
-|-----------------|--------------------------|-------1-----------------------|
    Verse
[ Tab from: http://www.guitartabs.cc/tabs/d/daedalian/darker_in_the_light_tab.html ]
-|----------------------------------------------------------------------------|
-|----------------------------------------------------------------------------|
-|-5555555555555x/------------------------------------------------------------|
-|-5555555555555x/333xx333-x4-------------------------------------------------|
-|-3333333333333x/333xx333----------------------------------------------------|
-|----------------111xx111----------------------------------------------------|
    Prechorus

-|-----------------------|------|---------------------------------------------|
-|-----------------------|------|---------------------------------------------|
-|-/-7-7-77--------------|------|---------------------------------------------|
-|-/-7-7-77-7-7-77-8-8-88|3-3-33|---------------------------------------------|
-|-/-5-5-55-7-7-77-8-8-88|3-3-33|---------------------------------------------|
-|----------5-5-55-6-6-66|1-1-11|---------------------------------------------|
    Chorus                                   Outro (first part 8 bars!)

-|---------------------------------------|------|-----------------------------|
-|---------------------------------------|------|-----------------------------|
-|-10--10-1010-5--5-5-5------------------|------|-55-77-----------------------|
-|-10--10-1010-5--5-5-5-7-7-777-8-888-x4-|-1010-|-55-77-3---------------------|
-|-8---8--8-8--3--3-3-3-7-7-777-8-888----|-8-8--|-33-55-3---------------------|
-|----------------------5-5-555-6-666----|------|-------1---------------------|
    Check out...Daedalian.boltpages.com/daedalian...
Comments