Daddy Cool - Eagle Rock Chords & Tabs

 

Eagle Rock Chords & Tabs

Daddy Cool Chords & Tabs

Version: 4 Type: Tab 0 ratings
1 star 2 stars 3 stars 4 stars 5 stars
comments

Eagle Rock Tab

   
This is a really easy song to play, its only the intro it is all i could work out and i 
you like it.
[ Tab from: http://www.guitartabs.cc/tabs/d/daddy_cool/eagle_rock_tab_ver_4.html ]
        ----0--------0--------------------0--------------------0---------|
        ----------2-----3-----0-----2--------3-----0-----2--------3------|
        -------------------2-----------2--------2-----------2--------2---|
        -----------------------------------------------------------------|
        --0----0-----------------0--------------------0------------------|
        -----------------------------------------------------------------|


        -----------------------------------------------------------------|
        -----------------------------------------------------------------|
        --2--2--2--2-----------------------------------------------------|
        --------------2--2--2--2-2---------------------------------------|
        -----------------------------------------------------------------|
        -----------------------------------------------------------------|

                                  SAMMY G
Comments