Dadafon - My Brothers Comeback Chords & Tabs

 

My Brothers Comeback Chords & Tabs

Dadafon Chords & Tabs

Version: 1 Type: Tab 0 ratings
1 star 2 stars 3 stars 4 stars 5 stars
comments

My Brothers Comeback Tab

   
This song is from their latest album "Harbour". If you like them you should altso check
out "visitor".
More info can be found at www.dadafon.com
-------------------------------------------------------------------------------
			     My brothers comeback - Dadafon
-------------------------------------------------------------------------------
Tabbed by:Espen Rian Skog
Email:Espenskog@gmail.com

Tuning:EADGBE (standard)

Intro/verse
e|---------------------------------------------------------------------------|
B|---------------------------------------------------------------------------|
G|--------10-10h12-10--------------------------------------------------------|
D|--12-12-------------12-10----10h12-10--------------------------------------|
A|--------------------------12-----------------------------------------------|
E|---------------------------------------------------------------------------|

Prechorus riff.
(You know you will find a way/you know where you wanna be)
e|---------------------------------------------------------------------------|
B|---------------------------------------------------------------------------|
G|---------------10-10----10-12-9-10-----------------------------------------|
D|--12-12-10-12--------12----------------------------------------------------|
A|---------------------------------------------------------------------------|
E|---------------------------------------------------------------------------|

e|---------------------------------------------------------------------------|
B|---------------------------------------------------------------------------|
G|----------------------------10-9-------------------------------------------|
D|--12-12-10-12-12-12-10---12-------12---------------------------------------|
A|---------------------------------------------------------------------------|
E|---------------------------------------------------------------------------|

I belive the song is played on a resonator guitar,
(so because of this or some other reason)
you might find the sound on your guitar to diverse somewhat from the that on the album, 
if so, try playing it like this.
[ Tab from: http://www.guitartabs.cc/tabs/d/dadafon/my_brothers_comeback_tab.html ]
e|--10-10----10-13-13-10-13-15-12-13-----------------------------------------|
B|--------13-----------------------------------------------------------------|
G|---------------------------------------------------------------------------|
D|---------------------------------------------------------------------------|
A|---------------------------------------------------------------------------|
E|---------------------------------------------------------------------------|

e|-10-10----10-10-10----10--13-12-10-----------------------------------------|
B|-------13----------13------------------------------------------------------|
G|---------------------------------------------------------------------------|
D|---------------------------------------------------------------------------|
A|---------------------------------------------------------------------------|
E|---------------------------------------------------------------------------|

Vers.1

Take off your shoes, its time to walk.
Put down your shield why do we talk
between the limes, it all went wrong
oh brother you've been troubling far too long.            
A painful scourge, a will to strong
oh brother you've been troubling far too long
Something that keeps you down, so hard to ease your mind
Harbour that turns around to be.
A painful scourge, a will too strong.
Oh brother you've been troubling far too long

Prechorus
you know you will find a way (go on go on)
your comeback is not far away (go on, brother go on)

Chorus

Em                                         D  A       C
My brothers comeback (we will wait for your comeback)

    G D      C
Celebrating you
Em                                           D  A       C
My brothers comeback (we will wait for your comeback)
   G  D      C
celebrating you

Prechorus.
Chorus.
Solo

Something that keeps you down, so hard to ease your mind
Harbour that turns around to be.
A painful scourge, a will too strong.
Oh brother you've been troubling far too long

Prechorus2:

You know where you wanna be. (go on go on)
And may your broken body soon be free ( go on brother go on)

Chorus.

----------------------------------------------------------------------------
Finally fuller version, hope someone finds it useful.
Feedback always appreaciated.

| /  slide up
| \  slide down
| h  hammer-on
| p  pull-off
| ~  vibrato
| +  harmonic
| x  Mute note
| b  bend
| r  release
| ^  hold bend
| *  let ring
===============================================================================
Comments