Dad - Scare Yourself Chords & Tabs

 

Scare Yourself Chords & Tabs

Dad Chords & Tabs

Version: 1 Type: Tab 0 ratings
1 star 2 stars 3 stars 4 stars 5 stars
comments

Scare Yourself Tab

   
Band: D.A.D
Song: Scare yourself
Tabber: René E. Niclasen
Note: Few specialties you'll need the song to do right, it was too
hard to make it in the program and make it sound right.
The solo tones are correct but speed and stuff is a bit off.


Here we go:


Intro

E||---------------------------|--------------------------|
B||---------------------------|--------------------------|
G||---------------------------|--------------------------|
D||---11----11----11----11----|--11----11----11----11----|
A||---11----11----11----11----|--11----11----11----11----|
E||---9-----9-----9-----9-----|--9-----9-----9-----9-----|


Verse Riff


E||---------------------------|-----------------------|----------------------|-----------------------|
B||---------------------------|-----------------------|----------------------|-----------------------|
G||---------------------------|-----------------------|----------------------|-----------------------|
D||---11----11----11----11----|--11/---9----9----9----|--9----7----7----7----|--7----6----6----6-----|
A||---11----11----11----11----|--11/---9----9----9----|--9----7----7----7----|--7----6----6----6-----|
E||---9-----9-----9-----9-----|--9/----7----7----7----|--7/---5----5----5----|--5/---4----4----4-----|


Interlude


E||--------------------|-------------------|-------------------|--------------------|
B||--------------------|-------------------|-------------------|--------------------|
G||---4----------------|--7----------------|--6----------------|--------------------|
D||---4----------------|--7----------------|--6----------------|--5-----------------|
A||---2----------------|--5----------------|--4----------------|--5-----------------|
E||--------------------|-------------------|-------------------|--3-----------------|


Chorus
[ Tab from: http://www.guitartabs.cc/tabs/d/dad/scare_yourself_tab.html ]
SCARE YOURSELF!!!!!!!!!!
E||----------------------|----------------------|----------------------|-----------------------|
B||----------------------|----------------------|----------------------|-----------------------|
G||--4----4----4----4----|--7----7----7----7----|--6----6----6----6----|-----------------------|
D||--4----4----4----4----|--7----7----7----7----|--6----6----6----6----|--5----5----5----5-----|
A||--2----2----2----2----|--5----5----5----5----|--4----4----4----4----|--5----5----5----5-----|
E||----------------------|----------------------|----------------------|--3----3----3----3-----|


Interlude 2
You never left the ground
E||----------------------|----------------------|
B||----------------------|----------------------|
G||--------7-------------|--7-------------------|
D||---2----7----5--------|--7----5----2---------|
A||---2----5----5--------|--5----5----2---------|
E||---0---------3--------|-------3----0---------|


The Solo

E||--------------------------|
B||--------------------------|
G||--------------11----11b---|Keep bending/Vibrating (listen to song for timing)
D||--11----14----------------|
A||--------------------------|
E||--------------------------|


                                                      
E||--------------------------|--------------------------|
B||--------------------------|--------------------------|
G||--------------11----11b---|------13--11--------------|
D||--11----14----------------|--------------------------|
A||--------------------------|----------------11~-------|
E||--------------------------|--------------------------|


                                                                         
E||--------------------------|--------------------------|
B||--------------------14~---|--------------------------|
G||--------------11----------|--------------11----11b---|
D||--11----14----------------|--11----14----------------|
A||--------------------------|--------------------------|
E||--------------------------|--------------------------|


                                          
E||---------------------|
B||---------------------|
G||------13--11----9~---|Bending again (Listen to song for timing)
D||---------------------|
A||---------------------|
E||---------------------|


Intro 2x
Verse riff 4x
Interlude 2x
Chorus 2x
Intro 1x
Verse riff 2x
Interlude 2x
Chorus 2x
Interlude (2) 4x
Solo
Interlude 2x
Chorus 4x
Interlude (2) 4x

Thats it - Check song for complete timing.
Comments