Dad - Isnt That Wild Chords & Tabs

 

Isnt That Wild Chords & Tabs

Dad Chords & Tabs

Version: 1 Type: Tab 0 ratings
1 star 2 stars 3 stars 4 stars 5 stars
comments

Isnt That Wild Tab

   
CHORDS:



Guitar



A= E|5| E= E|0| G= E|3| D= E|5| C= E|3| Cmaj7= E|0|

b|5| b|0| b|3| b|7| b|5| b|0|

G|5| G|1| G|3| G|7| G|5| G|5|

D|7| D|2| D|5| D|7| D|5| D|5|

A|7| A|2| A|5| A|5| A|3| A|2|

E|5| E|0| E|3| E|0| E|0| E|0|



Bass



A= G|-| E= G|-| G= G|-| D= G|-|

D|-| D|-| D|-| D|0|

A|0| A|-| A|-| A|-|

E|-| E|0| E|3| E|-|









Guitar 1



E|---------------------------------------------------------|

b|---------------------------------------------------------|

g|---------------------------------------------------------|

d|---------------------------------------------------------|

a|---------------------------------------------------------|

E|0-0-6-6-5-5-3-0-0-6-6-5-5-3-3-0-0-6-6-5-5-3-0-0-6-6-5-3-3|



-------------------------|---------------------------|

-------------------------|---------------------------|

-------------------------|---------------------------|

-------------------------|---------------------------|

-------------------------|---------------------------|

3-3-3-3-3-3-3-3-5-5-5-5-5|0-0-6-6-5-5-3-0-0-6-6-5-5-3|



Guitar 2 (Em) (G5) (A5)



E|---------------| |-------------------------|-------------------------------|

b|---------------| |-------------------------|-------------------------------|

g|---------------| |-------------------------|-------------------------------|

d|2-2-2-2-2-2-2-2| |-------------------------|2-2-2-2-2-2-2-2-2-2-2-2-2-2-2-2|

a|2-2-2-2-2-2-2-2| |5-5-5-5-5-5-5-5-7-7-7-7-7|2-2-2-2-2-2-2-2-2-2-2-2-2-2-2-2|

e|0-0-0-0-0-0-0-0|*4|3-3-3-3-3-3-3-3-5-5-5-5-5|0-0-0-0-0-0-0-0-0-0-0-0-0-0-0-0|



Bass


[ Tab from: http://www.guitartabs.cc/tabs/d/dad/isnt_that_wild_tab.html ]
g|-----------------------------------------------------------|-------------------------|

d|-----------------------------------------------------------|-------------------------|

a|----1-1-0-0-------1-1-0-0---------1-1-0-0-------1-1-0-0----|-------------------------|

e|0-0---------3-0-0---------3-3-0-0---------3-0-0---------3-3|3-3-3-3-3-3-3-3-5-5-5-5-5|



-----------------------------|

-----------------------------|

----1-1-0-0-------1-1-0-0----|

0-0---------3-0-0---------3-3|









Guitar 1



E|-------------------------------|-----------------------------|

b|-------------------------------|-----------------------------|

g|-------------------------------|-----------------------------|

d|-------------------------------|-----------------------------|

a|-------------------------------|-----------------------------|

e|0-0-0-0-0-0-0-0-0-0-0-0-0-0-0-0|0-0-6-6-5-5-3-0-0-6-6-5-5-3-3|*4



Bass



g|-----------------------------|

d|-----------------------------|

a|----1-1-0-0-------1-1-0-0----|

e|0-0---------3-0-0---------3-3|*8









Guitar 1/2



CHORDS:



| C | Cmaj7 | D | D |



TABS:



E|-------------------------------|

b|-------------------------------|

g|--------------2-2-2-2-2-2-2-2-2|

d|5--5-5-5--5-5-0-0-0-0-0-0-0-0-0|(Break)

a|3--3-3-2--2-2------------------|

e|-------------------------------|



Bass



CHORDS:



| C | b | D | D |



TABS:



g|-------------------------------------------------|

d|--------------------------------0-0-0-0-0-0-0-0-0|(Break)

a|3-3-3-3-3-3-3-3-2-2-2-2-2-2-2-2------------------|

e|-------------------------------------------------|









Guitar 1/2



CHORDS:



| A | E | G | D |*2



Bass



CHORDS:



| A | E | G | D |*2









Guitar 1 plays solo in A, C , and D scala.



Guitar 2



| A | A | A | A |

| C | Cmaj7 | D | D |

| C | Cmaj7 | D | D |



Bass



| A | A | A | A |

| C | b | D | D |

| C | b | D | D |
Comments