Dad - Empty Heads Chords & Tabs

 

Empty Heads Chords & Tabs

Dad Chords & Tabs

Version: 1 Type: Tab 0 ratings
1 star 2 stars 3 stars 4 stars 5 stars
comments

Empty Heads Tab

 Intro riff
E-----------------------------------------------|----------|
B-----------------------------------------------|----------|
G-----------------------------------------------|----------|
D-------5---5-------5---3-------5---3-----------|----------|
A---3-------------------------------------------|----------|
E-----------------------------------------------|----------|


    2. guitar                                vers
E---------------------------------------||-----------------|
B-----------3---3---5---5---------------||-----------------|
G-----------3---3---5---5---------------||-----------------|
D---3---3---3---3---5---5---4---4-------||-----------------|
A---3---3---1---1---3---3---4---4-------||-----------------|
E---1---1-------------------2---2-------||-----------------|


            Efter hver saetning
E----------------------------------------------------------|
B----------------------------------------------------------|
G----------------------------------------------------------|
D-----------------------2-------0--------------------------|
A---------------4---4-------4------------------------------|
E----------------------------------------------------------|

E-------||-------------------------------------------------|
B-------||-------------------------------------------------|
G-------||-------------------------------------------------|
D-------||-------------------------------------------------|
A-------||-------------------------------------------------|
E-------||-------------------------------------------------|

[ Tab from: http://www.guitartabs.cc/tabs/d/dad/empty_heads_tab.html ]
    I'm a stick of dynamite...
E----------------------------------------------------------|
B-----------3-------3--------------------------------------|
G-----------3-------3--------------------------------------|
D-----------3-------3-----------4---4----------------------|
A-----------1-------1-----------4---4----------------------|
E-------------------------------2---2----------------------|


                     Chorus
E-----------||---------------------------------------------|
B-----------||---------------------------------------------|
G-----------||---------------------------------------------|
D-----------||---------------------------------------------|
A-----------||---------------------------------------------|
E-----------||---------------------------------------------|


    Serving up another dream
E----------------------------------------------------------|
B---------------------------------------3-------3----------|
G---------------------------------------3-------3----------|
D---3-------------------3---------------3-------3----------|
A---3-------------------3---------------1-------1----------|
E---1-------------------1----------------------------------|


    Into everybody's empty heads...
E----------------------------------------------------------|
B---5-----------------------5------------------------------|
G---5-----------------------5------------------------------|
D---5-----------------------5-----------------------4------|
A---3-----------------------3-----------------------4------|
E---------------------------------------------------2------|

E---------------||-----------------------------------------|
B---------------||-----------------------------------------|
G---------------||-----------------------------------------|
D-----------4---||-----------------------------------------|
A-----------4---||-----------------------------------------|
E-----------2---||-----------------------------------------|
Comments