D4l - Laffy Taffy Chords & Tabs

 

Laffy Taffy Chords & Tabs

D4l Chords & Tabs

Version: 5 Type: Tab

Laffy Taffy Tab

Band / Artist :  d4l
Song title:  laughy taffy
[ Tab from: http://www.guitartabs.cc/tabs/d/d4l/laffy_taffy_tab_ver_5.html ]
e-------------------------------------------|
B-------------------------------------------|
G-------------------------------------------|
D-------------------------------------------|
A--------10---------10---------10--------10-|
E---8--8-------8--8-------8--8------8--8----|

e-------------------------------------------|
B-------------------------------------------|
G-------------------------------------------|
D-------------------------------------------|
A---------8---------8---------8---------8---|
E---6--6-------6--6------6--6------6--6-----|