D4 - Get Loose Chords & Tabs

 

Get Loose Chords & Tabs

D4 Chords & Tabs

Version: 1 Type: Tab

Get Loose Tab

   
This is a great song, you can hear it here:

http://webjay.org/iteminfo/91488/735c1f1a5af1806757e0506e35dbb5f2

Copy and paste this^ into your web browser.

Intro/Fig. 1 (0:00-0:06)
[ Tab from: http://www.guitartabs.cc/tabs/d/d4/get_loose_tab.html ]
     B5        E5      D5       E5
e|---------------------------------------|
b|---------------------------------------|
g|.-----------9-9-9-9--7-7-7-7--9-9-9-9-.|
d|./-9-9-9-9--9-9-9-9--7-7-7-7--9-9-9-9-.|
a|-/-9-9-9-9--7-7-7-7--5-5-5-5--7-7-7-7--|
E|-/-7-7-7-7-----------------------------|

  B5 Fig.2 alternate between tis and Fig. 1 from 0:07-0:26.
|-------------------|
|-------------------|
|.-----------------.|
|.-----------------.|
|-9-9-9-9--9-9-9-9--|
|-7-7-7-7--7-7-7-7--|

Somewhere near the end of the chorus, they throw in this:

  B5
|-------------|
|-------------|
|-------------|
|-------------|
|--9-9-9-9-9--|
|-7-7-7-7-7-7-|