D4 - Exit The City Chords & Tabs

 

Exit The City Chords & Tabs

D4 Chords & Tabs

Version: 1 Type: Bass Tab 0 ratings
1 star 2 stars 3 stars 4 stars 5 stars
comments

Exit The City Bass Tab

Band: The D4
Song: Exit the City
Tabbed: Stephen Ridding 
Email: Fionaridding@blueyonder.co.uk

This is a very good song pretty easy to play, but sounds good!

Intro  

G|-------------------------------------------|
D|-------------------------------------2-----|
A|-2-----------5------------0----------------|
E|-------------------------------------------|

Verse part 1  x 4
Note every time you play verse part 1 once go straight into the second and 
etc i.e part 1,2,1,2,1,2.

G|-------------------------------------------|
D|-----------------2-22----------------------|
A|-22-0-2--5--0-00---------------------------|
E|-------------------------------------------|

Verse part 2 x 4

G|-------------------------------------------|
D|-----------------2-22----------------------|
A|-202-----5--0-00---------------------------|
E|-------------------------------------------|
[ Tab from: http://www.guitartabs.cc/tabs/d/d4/exit_the_city_btab.html ]
Tricky bit 0:43 (a pain to keep in time at first)

G|-----------------------------------------|
D|--------------------2-2-2----------------|
A|-2-2-2-22----5---------------------------|
E|-----------------------------------------|

chorus 
                                     2nd time around
G|---------------------------------|-----------------------|
D|---------------------------------|-----------------------|
A|-5-55---0-0----2-0-2-0-2-0-2-----|55--00---7-5--7-5------|
E|---------------------------------|------------------7-5--|

Repeat verse till 2:47
Interlude
G|---------------------------------------------------------|
D|---------------------------------------------------------|
A|-2---0-----5----7----5-----------------------------------|
E|--------------------------7----5-------------------------|

Back into Verse

Outro play intro x 1
This band are going to be massive!
Comments