D4 - Come On Chords & Tabs

 

Come On Chords & Tabs

D4 Chords & Tabs

Version: 1 Type: Bass Tab 0 ratings
1 star 2 stars 3 stars 4 stars 5 stars
comments

Come On Bass Tab

----------------------------------------------------------------------------
			     Come On - The D4
----------------------------------------------------------------------------

Tabbed By: Ben DeHart
e-mail: www.myspace.com/thecapitols

Tuning: standard

Just showing some love for the D4.  This is an easy, fun song to play.
Rate it if you feel inclined to do so.  Any comments, hit up my band on myspace.

Intro
G|-------------------------------------------------------------------------|
D|-------------------------------------------------------------------------|
A|-------------------------------------------------------------------------|
E|-7-7-5-7-5-7r-77-5-7r-5--------------------------------------------------|

Chorus                        end of song only
G|---------------------------|---------------------------------------------|
D|---------------------------|---------------------------------------------|
A|---97----45r---567-7-------|---------------------------------------------|
E|-7----55-----5-------------|-7r------------------------------------------|
[ Tab from: http://www.guitartabs.cc/tabs/d/d4/come_on_btab.html ]
Variation 1
G|-------------------------------------------------------------------------|
D|-------------------------------------------------------------------------|
A|-------5r---567-7--------------------------------------------------------|
E|-77-55----5--------------------------------------------------------------|

Variation 2
G|-------------------------------------------------------------------------|
D|-------------------------------------------------------------------------|
A|-------5r---567-7--------------------------------------------------------|
E|-7r-5r----5--------------------------------------------------------------|

Variation 3
G|-------------------------------------------------------------------------|
D|-------------------------------------------------------------------------|
A|-------55-7r-------------------------------------------------------------|
E|-77-55-------------------------------------------------------------------|

Bridge
G|-------------------------------------------------------------------------|
D|-------------------------------------------------------------------------|
A|-------5r---567-7---------5r---567-7---------55-7r---------55-7r---------|
E|-7r-55----5---------77-55----5---------77-55---------77-55---------------|

order of the song
Intro        x2
Chorus       x4
Variation 1  x3
Variation 3  x1
Variation 1  x2
Intro        x2
Variation 2  x1
Variation 1  x4
Variation 3  x1
Variation 1  x5
Intro        x4
Bridge       x2
Varation 3   x4
Chorus       x4
Comments