D12 - Purple Pillz Chords & Tabs

 

Purple Pillz Chords & Tabs

D12 Chords & Tabs

Version: 1 Type: Bass Tab 0 ratings
1 star 2 stars 3 stars 4 stars 5 stars
comments

Purple Pillz Bass Tab

-------------------------------------------------------------------------------
			     Purple pillz - D12
-------------------------------------------------------------------------------

By:zero
Standard Tunning:EADG
[ Tab from: http://www.guitartabs.cc/tabs/d/d12/purple_pillz_btab.html ]
G|---------------------------------------------------------------------------|
D|---------------------------------------------------------------------------|
A|---5-5-3-1-3-3-1-0-1-0-----------------------------------------------------|
E|-3---------------------3-1-------------------------------------------------|


G|---------------------------------------------------------------------------|
D|---------------------------------------------------------------------------|
A|---5-5-3-1-3-1-0-1-0-1-0---------------------------------------------------|
E|-3-----------------------1-3-----------------------------------------------|


===============================================================================
Comments