D12 - Purple Pills Chords & Tabs

 

Purple Pills Chords & Tabs

D12 Chords & Tabs

Version: 1 Type: Bass Tab 0 ratings
1 star 2 stars 3 stars 4 stars 5 stars
comments

Purple Pills Bass Tab

Song - Purple Pills (or Hills)
Band - D12 ft EMINEM
Transcriber - Gareth Evans
Email - g_d_evans@hotmail.com

Here is the basic riff of Purple Pills that is played through the whole song, it can be played on  guitar (just play it an octave lower) but it sounds better on bass.
[ Tab from: http://www.guitartabs.cc/tabs/d/d12/purple_pills_btab.html ]
BASS
Standard Tuning
E|----------------------------------------|
A|----------------------------------------|
D|--3/6--------9--------9-8-9----6-8-6-4--|
G|-----8---8-6---6----6-------------------|

GUITAR
Standard Tuning
E|--1\4--------7--------7-6-7----4-6-4-2--|
A|-----6---6-4---4----4-------------------|
D|----------------------------------------|
G|----------------------------------------|
B|----------------------------------------|
E|----------------------------------------|
====
Comments