Cypress Hill - Whats Your Number Chords & Tabs

 

Whats Your Number Chords & Tabs

Cypress Hill Chords & Tabs

Version: 1 Type: Tab 0 ratings
1 star 2 stars 3 stars 4 stars 5 stars
comments

Whats Your Number Tab

   
----------------------------------------------------------------------------
			     WHATS YOUR NUMBER? - CYPRESS HILL
---------------------------------------------------------------------------
Tabbed by: ORIOLESAZB
Email: -----

Tuning: STANDARD

HYE KIDS THIS IS A GREAT SONG AND WHEN I FOUND THERE WAS NO TAB I DECIDED 2 MAKE 
EFFECTS IN THIS SONG ARE KINDA WEIRD SO IF IM NOT RIGHT IN MY SELE

INTRO- TOUCH WAH EFFECT...DONT HOLLD DOWN NOTES JUST PLACE YOUR FINGERS ON THESE NOTES 
PLAY RYTHMICALLY.

REPEAT THIS 8 TIMES
e|-3-3-3|
B|-3-3-3|
G|-3-3-3|
D|------|
A|------|
E|------|

VERSE: DIRTY EFFECT/LIGHT DISTORTION
[ Tab from: http://www.guitartabs.cc/tabs/c/cypress_hill/whats_your_number_tab.html ]
REPEAT 10 TIMES
e|-3-3-2-2-2-2-2-2|
B|-3-3-3-3-2-2-3-3|
G|-4-4-2-2-2-2-4-4|
D|----------------|
A|----------------|
E|----------------|

CHORUS: HEAVEY DISTORTION

REPEAT 2 TIMES
e|-2-2-2-2-2-2-2-2-3-3-2-2-3-3-2-2|
B|-2-2-3-3-2-2-3-3-3-3-2-2-3-3-2-2|
G|-2-2-2-2-2-2-2-2-4-4-2-2-4-4-2-2|
D|--------------------------------|
A|--------------------------------|
E|--------------------------------|

BRIDGE:MEDIUM REVERB

e|---2----2---2-2-2|
B|-2-3--2-3-2-3-3-2|
G|-2-2--2-2-2-2-4-2|
D|-----------------|
A|-----------------|
E|-----------------|

ORDER!
---------------------------
INTRO
VERSE
CHORUS
VERSE
CHORUS
BRIDGE
VERSE
CHORUS
---------------------------

THATS IT! GREAT SONG...I THINK ITS 100%! SEND ME COMMENTS!

| /  slide up
| \  slide down
| h  hammer-on
Comments