Cypress Hill - Valley Of Chrome Chords & Tabs

 

Valley Of Chrome Chords & Tabs

Cypress Hill Chords & Tabs

Version: 3 Type: Bass Tab 0 ratings
1 star 2 stars 3 stars 4 stars 5 stars
comments

Valley Of Chrome Bass Tab

Cypress Hill - Valley Of Chrome

Intro:

g-|---------------|---------------||
d-|---------------|---------------||
a-|----------7----|----------7----||
E-|----0---------6|---1-0--------6||

Verses:
[ Tab from: http://www.guitartabs.cc/tabs/c/cypress_hill/valley_of_chrome_btab_ver_3.html ]
g-|---------------|---------------||
d-|---------------|---------------||
a-|----------7----|---------7-----||
E-|---1-0--------6|---1-0--------6||

Chorus:

g-|---------------|---------------||
d-|---------------|---------------||
a-|---------------|---------------||
E-|---0--5---0--4-|--0--1---0--3--||

Tabbed by PB.
Comments