Cyclefly - Star Acoustic Chords & Tabs

 

Star Acoustic Chords & Tabs

Cyclefly Chords & Tabs

Version: 1 Type: Chords 0 ratings
1 star 2 stars 3 stars 4 stars 5 stars
comments

Star Acoustic Chords

   
Artist: Cyclefly
Song: Star (acoustic)

Hi all, this is one of my first songs i've put chords to, but this is
a great song, download it and see! It seems perfect to me, but pay
attention to the chords below, it really makes the song! 

      EADGBE
A:    002220
A(1): 022220
A(2): 002230
D:    000230
G:    320033
G(2)  320000

Tab 1:
E]------------------------------------------------------
B]------------------------------------------------------
G]-2-2-2-2-2-2------------------------------------------
D]-2-2-2-2-2-2-2-2-2-2-2-2-2-2-2--5-5-5-5-5-2-2-2-2-----
A]-0-0-0-0-0-0-2-2-2-2-2-2-2-2-2--5-5-5-5-5-2-2-2-2-----
E]-------------0-0-0-0-0-0-0-0-0--3-3-3-3-3-0-0-0-0-----

[Tab 2]
     E    A(2)    G(2) D      (repeat)
E]---020--020-----020--020------------------------------
B]---000--333-----000--333------------------------------
G]---111--222-----000--222------------------------------
D]---222--222-----000--000------------------------------
A]---222--000-----222--000------------------------------
E]---000--000-----333--000------------------------------



Intro: A(1) - E (X4)

[ Tab from: http://www.guitartabs.cc/tabs/c/cyclefly/star_acoustic_crd.html ]
      E          G                 D
I can feel it... Causin through my veins etc is
E         G              D
Releasin, all the mental strain
(tab 1)
So many things to do, so many things to say
(tab 1)
Why do we mend my pride (?), Wait on another day yeah.
A(1) - E (X4)
      E           G             D
And i feeel that, nuthins gonna change
E                   G             D
Bielieve thaat, and wash away your pain
(tab 1)
So many times i've tried, eatin me up inside
(tab 1)
So many times i've thought, reason the walls empound (?)
E        A(2)      G
No dont neeeed yo' dignateey!
D                   E
It couldnt stop me, you'll see!
A(2)            G
And i dont care, i wasnt there
D                    E         A(2)
It couldnt block me, you see

*continue on with [tab 2], see top of page.*
D           G     E       A(2)   G(2)   D
I hiiiide. 
E                A(2)        G(2)            D
No i dont need, yo dignatee, no i dont mind, i couldnt find
E             A(2)     G                D
Like i staar, too far. Like a staar too far.
E                A(2)               G                 D        E
Star, Star, Star, Star, Star, Star, Star, Star, Star, Star, Star.

Enjoy the best acoustic song i have ever heard!!!
Cian
Cian_clarke@hotmail.com
Comments