Cyclefly - Better Than You Chords & Tabs

 

Better Than You Chords & Tabs

Cyclefly Chords & Tabs

Version: 1 Type: Tab 0 ratings
1 star 2 stars 3 stars 4 stars 5 stars
comments

Better Than You Tab

   
Tabbed by: Matt Lovell (Frogstomper).

There are not many tabs for Cyclefly and this is such a great song that i had to figure
it out to share with you. Its a great song to hear live and   is just as good to play.
Enjoy!!.

Tunning:E,A,D,G,B,E

  Intro/Verse
  (clean)                 x3                      x1
e|--------------------------|-----------------------|
B|--------------------------|-----------------------|
G|9h11-11-9-----------------|-----------------------|
D|0---0--0--11--11-11-9-9h11|-11--11-11x7--7-7-7-7x-| x3
A|----------0--0--0--0--0---|-9---9--9-x5--5-5-5-5x-|
E|--------------------------|-----------------------|

  Chorus
  (Distorted)
e|-------------------------------------------------------|
B|-------------------------------------------------------|
G|-------------------------------------------------------|
D|-9h11-11--11-9h11-11--11-9--9-9--9h11-11x7--7-7-7--7-7-|
A|-0----0---0--0----0---0--0--0-0--0----0-x5--5-5-5--5-5-|
E|-------------------------------------------------------|

e|---------------------------------------------------|
B|---------------------------------------------------|
G|---------------------------------------------------|
D|-9h11-11--11-9h11-11--11-9--9-9-11--11-11x7--7-7-7x| x1
A|-0----0---0--0----0---0--0--0-0-9---9--9-x5--5-5-5x|
E|---------------------------------------------------|

  Solo                        x3               x1
e|------------------------------|----------------| After this play verse
B|------------------------------|----------------| riff x3 then chorus riff
G|-9h11-11-11-9-----------------|----------------| x2
D|-------------11~~11-11-11-9h11|----------------|
A|------------------------------|-7h9-9-9-9-5~~~~|
E|------------------------------|----------------|
[ Tab from: http://www.guitartabs.cc/tabs/c/cyclefly/better_than_you_tab.html ]
  Bridge              x3
e|----------------------|----------|
B|----------------------|----------|
G|----------------------|----------|
D|-8-8-8-8--8-8-8-8--8-8|--8-8-8-8-|
A|-8-8-8-8--8-8-8-8--8-8|--8-8-8-8-|
E|-6-6-6-6--6-6-6-6--6-6|--6-6-6-6-|

e|-------------------------------------------------------------------------|
B|-------------------------------------------------------------------------|
G|-7-7-7-7-7-7-7-7-7-7-7-7-7-7-7-7-----------------------------------------|
D|-7-7-7-7-7-7-7-7-7-7-7-7-7-7-7-7-8-8-8-8-8-8-8-8-8-8-8-8-8-8-8-8-3-3-3-3-|
A|-5-5-5-5-5-5-5-5-5-5-5-5-5-5-5-5-8-8-8-8-8-8-8-8-8-8-8-8-8-8-8-8-3-3-3-3-|
E|---------------------------------6-6-6-6-6-6-6-6-6-6-6-6-6-6-6-6-1-1-1-1-|

e|-------------------------------------------------------------------------|
B|-------------------------------------------------------------------------|
G|------------------------5-5-5-5-5-5-5-5-5-5-5-5-5-5-5-5-7-7-7-7-7-7------|
D|3-3-3-3-3-3-3-3-3-3-3-3-3-3-3-3-3-3-3-3-3-3-3-3-3-3-3-3-7-7-7-7-7-7-8-8-8|
A|3-3-3-3-3-3-3-3-3-3-3-3-3-3-3-3-3-3-3-3-3-3-3-3-3-3-3-3-5-5-5-5-5-5-8-8-8|
E|1-1-1-1-1-1-1-1-1-1-1-1---------------------------------------------6-6-6|

e|------------------------------------------------------------------------|
B|------------------------------------------------------------------------|
G|-----------------------5-5-5-5-5-5-5-5-15-15-15-15-15-15-15-15-17-17-17-|
D|-8-8-8-8-8-3-3-3-3-3-3-5-5-5-5-5-5-5-5----------------------------------|
A|-8-8-8-8-8-3-3-3-3-3-3-3-3-3-3-3-3-3-3----------------------------------|
E|-6-6-6-6-6-1-1-1-1-1-1--------------------------------------------------|

e|----------------------------------------15-16-17-18-19\--| Then play verse
B|----------------17-17-17-17-17-17-17-17------------------| riff x1, then
G|-17-17-17-17-17------------------------------------------| play chorus
D|---------------------------------------------------------| riff x4 to end.
A|---------------------------------------------------------| last chord ring
E|---------------------------------------------------------| to fade out.

| /  slide up
| \  slide down
| h  hammer-on
| p  pull-off
| ~  vibrato
| +  harmonic
| x  Mute note
Comments