Cutting Jade - Almost Real Chords & Tabs

 

Almost Real Chords & Tabs

Cutting Jade Chords & Tabs

Version: 1 Type: Tab 0 ratings
1 star 2 stars 3 stars 4 stars 5 stars
comments

Almost Real Tab

   
Date: Wed, 6 Oct 2004 14:22:26 +0200
From: Arthur Maydell 
Subject: c/cutting_jade/almost_real.tab

Artist: Cutting Jade
Tabbed Song: Almost Real
Album: Come Back To Life
Band Website: www.cutingjade.com
Tabbed by: Arthur (arty@mweb.co.za)
Date: 05 October 2004


Gtr I (C# G# C# F# A# D#) 
Gtr 2 (C# G# C# F# A# D#)

(Dropped D tuning with all the strings then dropped half a step further
- I guess 
you could try play it with normal dropped D tuning: D A D G B E )



Intro & Verse

Gtr 1   

4/4
|------------------------------------------|
|------------------------------------------|
|------------------------------------------|
|-0----0-0-0----0-0-0----0-0-0----0-0-0----|
|-3h5--5-5-5p3--3-3-3h5--5-5-5p0--0-0-0----|
|-0----0-0-0----0-0-0----0-0-0----0-0-0----|

"Days come and go..."

Gtr 2

|------------------------------------------|
|-------------------------------------6----|
|------------------------------------------|
|------------------------------------------|
|------------------------------------------|
|------------------------------------------|



Gtr 1

|---------------------------------------------|
|---------------------------------------------|
|---------------------------------------------|
|-3----3p2-2-2-3--3p2-2-2-3--3p2-2-2-3-3-2----|
|-3----3---3-3-3--3---3-3-3--3---3-3-3-3-3----|
|-3----3---3-3-3--3---3-3-3--3---3-3-3-3-3----|

Gtr 2

|------------------------------|
|-5-----------------6-5--------|
|-------5---------------5-5----|
|------------------------------|
|------------------------------|
|------------------------------|

' And I'm feeling...'



Prechorus 

Gtr 1 & Gtr 2

|--------------------------------------|
|--------------------------------------|
|-5/7--7-7-7/10--10-10-10/9--12--12----|
|-5/7--7-7-7/10--10-10-10/9--12--12----|
|-3/5--5-5-5/8----8--8--8/7--10--10----|
|--------------------------------------|

"...the world is sinking in."



Chorus
[ Tab from: http://www.guitartabs.cc/tabs/c/cutting_jade/almost_real_tab.html ]
Gtr1
                              PM|
|------------------------------------|
|------------------------------------|
|---------------5--5-------5---------|
|-0--0-0-3--3-3-5--5--3----5--0-0----|
|-0--0-0-3--3-3-3--3--3----3--0-0----|
|-0--0-0-3--3-3-------3-------0-0----|

Gtr 2

|--------------------------------------|
|--------------------------------------|
|-5/7--7-7-7/10--10-10-10/9--12--12----|
|-5/7--7-7-7/10--10-10-10/9--12--12----|
|-3/5--5-5-5/8----8--8--8/7--10--10----|
|--------------------------------------|

"You are almost everything I need,..."




Bridge

Gtr 1 - Clean

  PM----------------------------|
|------------------------------------|
|------------------------------------|
|------------------------------------|
|---------5-3-------------5-3--------|
|-0-0-3-5-----5-3-0-0-3-5-----5-3----|
|-0-0-------------0-0----------------|

Gtr 2 - Distorted

 PM--|
|------------------------------------|
|------------------------------------|
|------------------------------------|
|-0-0--------------------------------|
|-0-0--------------------------------|
|-0-0--------------------------------|

"You are almost real, you are almost real..."


Gtr 1

|------------------------------|
|------------------------------|
|-----7---7-----5-----5--------|
|---5---5---5-----5-----5------|
|-3-----------3-----3-----3----|
|------------------------------|

Gtr 2 Dist with feedback

|------------------------------|
|-15 ~~~~~~~~~~~12 ~~~~~~~~~~~~~-|
|------------------------------|
|------------------------------|
|------------------------------|
|------------------------------|



Outtro - Gtr 1 & Gtr 2

|------------------------------------|
|------------------------------------|
|------------------------------------|
|---------5-3-------------5-3--------|
|-----3-5-----5-3-----3-5-----5-3----|
|-0-0-------------0-0----------------|


|--------------------------------|
|--------------------------------|
|-7-7-7-7-7-7--5--5-5--5--5-5----|
|-5-5-5-5-5-5--5--5-5--5--5-5----|
|-3-3-3-3-3-3--3--3-3--3--3-3----|
|--------------------------------|

"You can make me feel..."
Comments