Cutting Crew - I Just Died In Your Arms Chords & Tabs

 

I Just Died In Your Arms Chords & Tabs

Cutting Crew Chords & Tabs

Version: 1 Type: Tab 0 ratings
1 star 2 stars 3 stars 4 stars 5 stars
comments

I Just Died In Your Arms Tab

  intro
  ---------------------------------------------------------------------------|
  ---------------------------------------------------------------------------|
  ---------------------------------------------------------------------------|
  ---------------------------------------------------------------------------|
  ---------7x8--------9x3--------5x4--------3x8--------5x3--------3x4--------|
  ---------9----------11---------7----------5----------7----------1----------|

  this is sapose to be the keybord at the intro, its not right but it gives u           
to play while ur waiting for the guitar.

  chorus
  ---------------------------------------------------------------------------|
  ---------------------------------------------------------------------------|
  ---------------------------------------------------------------------------|
  ----7-9-10-12p----------7-9-10-12-14-12p-----------------------------------|
  ---------------------------------------------------------------------------|
  ---------------------------------------------------------------------------|
  this gets played constently throughout the song, so like just listen and put it in 
and the 10 after the 9 seems to be in there only some of the time so like yah....
[ Tab from: http://www.guitartabs.cc/tabs/c/cutting_crew/i_just_died_in_your_arms_tab.html ]
  ---------------------------------------------------------------------------|
  ---------------------------------------------------------------------------|
  -----------99-----------77-----------55-----------33-----------1h3--3--1---|
  ----------------77-----------55-----------33-----------1h3----------5--3---|
  ---------------------------------------------------------------------------|
  ---------------------------------------------------------------------------|
   you can pawm this if u want but it doesnt really matter. and after the 3 1
   it goes into the chorus.
  -----------|
  -----------|  this is just kind of randomly in the....dont play it if u dont
  --17-------|  want to. there is stuff in the inbetween this and the pawmed this 
but its like just really ramdom so egnore it.
  ------14p--|
  -----------|
  -----------|


  ---------------------------------------------------------------------------|
  ---------------------------------------------------------------------------|
  -----------99-----------77-----------55-----------33-----------------------|
  ----------------77-----------55-----------33-----------11------------------|
  ---------------------------------------------------------------------------|
  ---------------------------------------------------------------------------|
  this is pawmed

  well thats it....sry i dont noe the solo and the only reason i put this up is becasue 
cant find the tabs for it newhere so yah....kk well if for sum odd reason u noe the solo 
u think this is like really bad email me
commando_110@hotmail.com
Comments