Cut And Saw - Scorching Harmonics Chords & Tabs

 

Scorching Harmonics Chords & Tabs

Cut And Saw Chords & Tabs

Version: 1 Type: Bass Tab 0 ratings
1 star 2 stars 3 stars 4 stars 5 stars
comments

Scorching Harmonics Bass Tab

Artist: Cut&Saw
Song:   Scorching Harmonics
------------------------------

No bass in guitar intro

Intro riff

G-----------------|-----------------|
D-----------------|-----------------|
A-5-5-5-5-5-5-5-5-|-----------------|
E-----------------|-5-5-5-5-5-5-5-5-|

Main riff.

G-----------------|-----------------|
D-------7-7-5-5-3-|-------7-7-5-5-3-|
A-5-5-5-----------|-5-5-5-----------|
E-----------------|-----------------|
[ Tab from: http://www.guitartabs.cc/tabs/c/cut_and_saw/scorching_harmonics_btab.html ]
G-----------------|-----------------|
D-----------------|-----------------|
A-------7-7-5-5-3-|-------7-7-5-5-3-|
E-5-5-5-----------|-5-5-5-----------|

Bass doodle (with ringing guitars)

G-----7-------2---|-----7-----------|
D---7---7---3---3-|---7---7---------|
A-5---------------|-5-------5-5-5-5-|
E---------6-------|-----------------|

G-----------------|-----7-----------|
D-----------------|---7---7---------|
A-3-3-3-3-4-4-4-4-|-5-------5-5-5-5-|
E-----------------|-----------------|

Tabbed by Robin D'Espresso.
Fan mail and love letters may be sent to jammindevil@hotmail.com

Comments