Custom - Hey Mister Chords & Tabs

 

Hey Mister Chords & Tabs

Custom Chords & Tabs

Version: 1 Type: Tab 0 ratings
1 star 2 stars 3 stars 4 stars 5 stars
comments

Hey Mister Tab

Author/Artist: Custom
Title: Hey Mister
Transcribed by: Nathan Sisk
Email: dsisk@sc.rr.com

The first verse really doesn’t have any guitar in it, just a synthesizer
Or something.
[ Tab from: http://www.guitartabs.cc/tabs/c/custom/hey_mister_tab.html ]
Pre-chorus (clean)
“It’s not, what you did, it’s not …)
e---000--000--000--000-----------------------------------------
B---000--000--000--222-----------------------------------------
G---666--444--666--222-----------------------------------------
D---666--444--666--222-----------------------------------------
A---444--222--444--000-----------------------------------------
E--------------------------------------------------------------
  
Chorus (distortion)
“It’s not, she’s a tramp, It’s not, She’s …)                                        
e--------------------------------------------------------------
B--------------------------------------------------------------
G--------444--666----------------------------------------------
D---222--444--666--777-----------------------------------------
A---222--222--444--777-----------------------------------------
E---000------------555-----------------------------------------
                                                                              
Verse (clean)
“Hey Mister, I really like your daughter,…”
e-----0-----0-----0---0----------------------------------------
B-----0-----0-----0---0----------------------------------------
G-----6-----4-----2---2----------------------------------------
D----6-----4-----2—-2---2--------------------------------------
A---4---4-2---2-0---------2-2/4--------------------------------
E--------------------------------------------------------------

Bridge (Distortion)
“Are you eating all the food, and your friends…”                    
e--------------------------------------------------------------
B--------------------------------------------------------------
G---xx6-xx7---------xx6-xx7---------66-77-------66-77----------
D---xx6-xx7-xx6-xx7-xx6-xx7-xx6-xx7-66-77-66-77-66-77-66-77----
A---xx4-xx5-xx6-xx7-xx4-xx5-xx6-xx7-44-55-66-77-44-55-66-77----
E-----------xx4-xx5---------xx4-xx5-------44-55-------44-55----
 
The Little Outro Thingy (distortion)                       
The 3rd time he sings, “I hope I never have a daughter…”
e----------------------------------------------------------------------
B----------------------------------------------------------------------
G---8/9-9-9\8-8-8/9-9-9\11-11-11-8/9-9-9\8-8-8/9-9-9/11-11-11/-14-14-14
D----------------------------------------------------------------------
A----------------------------------------------------------------------
E----------------------------------------------------------------------

Order:
(No guitar in 1st verse)
Pre-Chorus
Chorus
Verse (with guitar)
Pre-Chorus
Chorus
Bridge
(No guitar after Bridge)
Pre-Chorus(with distortion)
Chorus
The Little Outro Thingy is during the last Chorus
Pre-Chorus

Hey, have fun this song kicks ass.
Comments