Cursive - After The Movies Chords & Tabs

 

After The Movies Chords & Tabs

Cursive Chords & Tabs

Version: 2 Type: Tab 0 ratings
1 star 2 stars 3 stars 4 stars 5 stars
comments

After The Movies Tab

after the movies, great song


---------------------------------------|
-------13--11--15----------13--11--15--|
-12-15-------------12--15--------------|
---------------------------------------|
---------------------------------------|
---------------------------------------|
[ Tab from: http://www.guitartabs.cc/tabs/c/cursive/after_the_movies_tab_ver_2.html ]
---------------------------------------|
-------13--11--15--------13--11--15----|
-10-15-------------10-15---------------|
---------------------------------------|
---------------------------------------|
---------------------------------------|

---------------------------------------|
-------13--11--15---------13--11--15---|
----15-----------------15--------------|
-13----------------13------------------|
---------------------------------------|
---------------------------------------|

---------------------------------------|
-------13--11--15--------13--11--15----|
----15----------------15---------------|
-12----------------12------------------|
---------------------------------------|
---------------------------------------|
thats guitar one for the intro
Comments