Cure - Where The Birds Always Sing Chords & Tabs

 

Where The Birds Always Sing Chords & Tabs

Cure Chords & Tabs

Version: 1 Type: Bass Tab 0 ratings
1 star 2 stars 3 stars 4 stars 5 stars
comments

Where The Birds Always Sing Bass Tab

 -----------------------------
| WHERE THE BIRDS ALWAYS SING |
|                             |
| Bloodflowers (2000)         |
|                             |
| www.thetwilightgarden.com   |
 -----------------------------

BASS

http://www.geocities.com/cure_dib/
Joshua Cross (cure_dib@yahoo.com)

I have to give Robert Smith some credit for this one, as i figured out the bassline
with help from the guitar tab he put on the official page. the only part i don't know
is the solo. Simon plays something different under it, and i haven't figured out what
it is. if you know, send it in!


INTRO & OUTRO

G ----------------------------------------------------------------------------|
D ----------------------------------------------------------------------------|
A ----------------------------------------------------------------------------|   x2
E -5-5-5-5-5-5-5-5--7-7-7-7-7-7-7-7--8-8-8-8-8-8-8-8--10-10-10-10-10-10-10-10-|


VERSE
[ Tab from: http://www.guitartabs.cc/tabs/c/cure/where_the_birds_always_sing_btab.html ]
G ----------------------------------------------------------|
D ----------------------------------------------------------|
A -7-7-7-7-7-/-(10)-\--5-5-5-5-5--3-3-3-3-3-----------------|  x3
E -------------------------------------------5--3-5-3-5-3-5-|

G ------------------------------------------|
D ------------------------------------------|
A ------------------------------------------|  x2 on vocal verse only
E -7-7-7-7-7-7-7-7--10-10-10-10-10-10-10-10-|


CHORUS

G ------------------------------------------------------------------------------------|
D ------------------------------------------------------------------------------------|
A ------------------------------------------------------------------------------------|  x3
E -12-12-12-12-12-12-12-12--10-10-10-10-10-10-10-10--8-8-8-8-8-8-8-8--8-8-8-8-8-8-8-8-|

G --------------------------------------------------------------------|
D --------------------------------------------------------------------|
A ----------------------------------------------------5-5-5-5-5-5-5-5-|
E -5-5-5-5-5-5-5-5--7-7-7-7-7-7-7-7--5-5-5-5-5-5-5-5------------------|


MIDDLE 8

G -----------------------------------------------------|
D -----------------------------------------------------|
A -7-7-7-7-7-/-(10)-\--5-5-5-5-5--2-2-2-2-2--3-3-3-3-3-|  x3
E -----------------------------------------------------|

then play the outro
Comments