Cure - There Is No If Chords & Tabs

 

There Is No If Chords & Tabs

Cure Chords & Tabs

Version: 2 Type: Tab 0 ratings
1 star 2 stars 3 stars 4 stars 5 stars
comments

There Is No If Tab

   
----------------------------------------------------------------------------
			   THERE IS NO IF - The Cure
----------------------------------------------------------------------------
Tabbed by:Shawn

Tuning: Standard

(Verse)    This changes slightly but this is the most used

e|--2---------------0---------------0--2-2-2-0---------0--2-2-2-0----------|
B|--3--3------------2--3-2-0--------0--0-0-0-0---------0--0-0-0-0----------|
G|--4---------------2---------------0--0-0-0-0---------0--0-0-0-0----------|
D|--4---------------2---------------2------------------2-------------------|
A|--2---------------0---------------2------------------2-------------------|
E|----------------------------------0------------------0-------------------|

(Chorus)
e|--------------------[---(2X)---]-----------------------------------------|
B|-------------------------------------------------------------------------|
G|---------------------7---------------------------------------------------|
D|---5---7---5---7-----7--7--9--9--------7--7--5----------5----------------|
A|---5---7---5---7-----5--7--9--7--------7--7--5----------5----------------|
E|-2\3\2\5-2\3\2\5--------5--7--7--------5--5--3-5-3-0----3-5-3-0----------|

(Very End)
e|-[----------2X-------------]---------------0-----------------------------|
B|-------------------------------------------0-----------------------------|
G|-------------------------------------------0-----------------------------|
D|-----7--9--7----9---5--------------7--9----0-----------------------------|
A|-----7--9--7----9---5--------------7--9----2-----------------------------|
E|--0--5--7--5----7---3-5-3-0-----0--5--7----3-----------------------------|

(Riff 1)
e|-------------------------------------------------------------------------|
B|-------------------------------------------------------------------------|
G|-7---7-6-------------------------7\9\7---7\9-----------------------------|
D|-7------7--4---4-5--7-4--------------------------------------------------|
A|------------------------5------------------------------------------------|
E|-------------------------------------------------------------------------|

(Riff 2)   (Piano)
e|-----------------------------------------{-------------(3X)-------------}|
B|-------------------------------------------------------------------------|
G|7-9-11--14~--7-9-11-9-7~-7-7-7--7\9\7\9\7---11-9-11---7~----7--7-7-7-7---|
D|---------------------------------------------------------------------9-7-|
A|------------------------------------------------------------------------9|
E|-------------------------------------------------------------------------|

(Riff 3)
e|-------------------------------------------------------------------------|
B|-------------------------------------------------------------------------|
G|------7\9\11\7----9\4----------7\9\11\7----------------------------------|
D|-------------------------------------------------------------------------|
A|-------------------------------------------------------------------------|
E|-------------------------------------------------------------------------|

(Riff 1 over chorus)
[ Tab from: http://www.guitartabs.cc/tabs/c/cure/there_is_no_if_tab_ver_2.html ]
  Bm                        A
REMEMBER THE FIRST TIME I TOLD YOU I LOVE YOU - 
       Em                                    
IT WAS RAINING HARD AND YOU NEVER HEARD - 
    Bm                           A       
YOU SNEEZED! AND I HAD TO SAY IT OVER    
          Em                             
"I SAID I LOVE YOU" I SAID... YOU DIDN'T SAY A WORD 
     Bm                       A          
JUST HELD YOUR HANDS TO MY SHINING EYES 
      Em                               
AND I WATCHED AS THE RAIN RAN THROUGH YOUR FINGERS 
Bm                     A                        
HELD YOUR HANDS TO MY SHINING EYES AND
   Em
SMILED AS YOU KISSED ME... 


        G                                   
"IF YOU DIE" YOU SAID "SO DO I" YOU SAID... 
       A                              
AND IT STARTS THE DAY YOU MAKE THE SIGN 
 G                                               A
"TELL ME I'M FOREVER YOURS AND YOU'RE FOREVER MINE 
           D             
FOREVER MINE... " 

(Riff 1)
(Riff 2) Over Chorus

        D                    A               
"IF YOU DIE" YOU SAID "SO DO I" YOU SAID... 
       Bm                            Em     
AND IT STARTS THE DAY YOU CROSS THAT LINE 
  A                     A                                   G   (a-G-e)
"SWEAR I WILL ALWAYS BE YOURS AND YOU'LL ALWAYS BE MINE 
              G       (a-G-e)
YOU'LL ALWAYS BE MINE 
       G         (a-G-e)
ALWAYS BE MINE... " 


(Riff 1) Over Chorus
                                                 
  Bm                         A                    
REMEMBER THE LAST TIME I TOLD YOU I LOVE YOU - 
       Em                                      
IT WAS WARM AND SAFE IN OUR PERFECT WORLD - 
    Bm                         A              
YOU YAWNED AND I HAD TO SAY IT OVER 
          Em                                   
"I SAID I LOVE YOU" I SAID... YOU DIDN'T SAY A WORD 
     Bm                        A              
JUST HELD YOUR HANDS TO YOUR SHINING EYES
      Em                                          
AND I WATCHED AS THE TEARS RAN THROUGH YOUR FINGERS 
Bm                         A             Em             
HELD YOUR HANDS TO YOUR SHINING EYES AND CRIED... 


        G                                    
"IF YOU DIE" YOU SAID "SO DO I" YOU SAID... 
       A                                   
BUT IT ENDS THE DAY YOU SEE HOW IT IS 
      G                                       
THERE IS NO ALWAYS FOREVER... 
     A                  D  
JUST THIS... JUST THIS... 

(Riff 1)
(Riff 2) Over Chorus

         D                   A              
"IF YOU DIE" YOU SAID "SO DO I" YOU SAID 
       Bm                   Em          
BUT IT ENDS THE DAY YOU UNDERSTAND 
Em    A  Bm  A    Bm   G    (a-G-e)        
THERE IS NO IF... JUST AND 
Em    A  Bm  A    Bm   G    (a-G-e)      
THERE IS NO IF... JUST AND 
Em    A  Bm  G               
THERE IS NO IF...

(Riff 3) Over ending


| \  slide
| ~  let ring
============================================================================
Comments