Cure - The Walk Chords & Tabs

 

The Walk Chords & Tabs

Cure Chords & Tabs

Version: 1 Type: Bass Tab 0 ratings
1 star 2 stars 3 stars 4 stars 5 stars
comments

The Walk Bass Tab

   
The Walk, by The Cure.  It's on about a zillion different albums...
noahvawt@wpi.wpi.edu

Ok, The Walk is a really easy song to play...you just 
follow the progression, playing octaves up the yin-yang,
and make neat-0 noises with the keyboard...
here is the verse:
- --2-2-0-0--------
- ----------2-2-2-2
0--0-------------
- ----3-3-0-0-0-0--
A    G   E       really simple, huh?
[ Tab from: http://www.guitartabs.cc/tabs/c/cure/the_walk_btab.html ]
here is the chorus...still playing all octaves...
- -2-2-5-5-7-7-7-7
- --------0-0-0-0-
0-0-3-3---------
- ----------------

and now the neat part...that crazy melody 
it's actually played on keyboard or guitar,
but it sounds neat, so here it is:
9-10-12-9-7-9-5---7-7-7-7-5-7-5-4--
- -----------------------------------
- -----------------------------------
- -----------------------------------
I suppose you could split it up onto different strings,
but why bother?  I think it's more fun this way...


Comments