Cure - The Top Chords & Tabs

 

The Top Chords & Tabs

Cure Chords & Tabs

Version: 2 Type: Bass Tab 0 ratings
1 star 2 stars 3 stars 4 stars 5 stars
comments

The Top Bass Tab

the top - basstab

by the Cure
from the very strange '84 output 'the top'

transcribed by Christian Reindel(creindel@gmx.de)
any questions or corrections- e-mail me


use a flanger-effect for better sound

intro
                      2 times     

G--------18-------------18----------18---------------------------
D--------17-------------17----------17---------------------------
A---------------------------------------------------16-16-16-16--
E--15-15-----15--15-15-------15-15--------15--15-15--------------
      

G--------18-------------18----------18---------------------------
D--------17-------------17----------17---------------------------
A---------------------------------------------------16-16-16-16--
E--12-12-----12--12-12-------12-12--------12--12-12--------------
    
                        2 times
  
G--------18-------------18----------18---------------------------
D--------17-------------17----------17---------------------------
A---------------------------------------------------16-16-16-16--
E--15-15-----15--15-15-------15-15--------15--15-15--------------


G--------18-------------18----------18---------------------------
D--------17-------------17----------17---------------------------
A---------------------------------------------------16-16-16-16--
E--12-12-----12--12-12-------12-12--------12--12-12--------------

verse 1

I don't care  if only I could say that

G--------18-------------18----------18---------------------------
D--------17-------------17----------17---------------------------
A---------------------------------------------------16-16-16-16--
E--15-15-----15--15-15-------15-15--------15--15-15--------------

and not feel so sick and scared

G--------18-------------18----------18---------------------------
D--------17-------------17----------17---------------------------
A---------------------------------------------------16-16-16-16--
E--12-12-----12--12-12-------12-12--------12--12-12--------------

I don't care if only I could say that

G--------18-------------18----------18---------------------------
D--------17-------------17----------17---------------------------
A---------------------------------------------------16-16-16-16--
E--15-15-----15--15-15-------15-15--------15--15-15--------------


if only my eyes would close

G--------18-------------18----------18---------------------------
D--------17-------------17----------17---------------------------
A---------------------------------------------------16-16-16-16--
E--12-12-----12--12-12-------12-12--------12--12-12--------------


chorus 1

it's jesus brillant you used to laugh
[ Tab from: http://www.guitartabs.cc/tabs/c/cure/the_top_btab_ver_2.html ]
G--------18-------------18----------18--------------------------
D--------17-------------17----------17--------------------------
A--12-12-----12--12-12-------12-12------12--12-12-14-14-14-14---
E---------------------------------------------------------------

walking these gorgeous blocks

G--------17-------------17----------17--------------------------
D--------16-------------16----------16--------------------------
A--15-15-----15--15-15-------15-15------15--15-15-17-17-17-17---
E---------------------------------------------------------------

this top is the place where nobody goes

G--------18-------------18----------18--------------------------
D--------17-------------17----------17--------------------------
A--12-12-----12--12-12-------12-12------12--12-12-14-14-14-14---
E---------------------------------------------------------------

you just imagine                             you just imagine it all

G--------17-------------17----------17--------------------------
D--------16-------------16----------16--------------------------
A--15-15-----15--15-15-------15-15------15--15-15-17-17-17-17---
E---------------------------------------------------------------

interlude
                      2 times     

G--------18-------------18----------18---------------------------
D--------17-------------17----------17---------------------------
A---------------------------------------------------16-16-16-16--
E--15-15-----15--15-15-------15-15--------15--15-15--------------
      

G--------18-------------18----------18---------------------------
D--------17-------------17----------17---------------------------
A---------------------------------------------------16-16-16-16--
E--12-12-----12--12-12-------12-12--------12--12-12--------------


verse 2 (like verse 1)

everbody I lie here
and know it's true
all I really want is you
please come back
please come back
like the other ones do

chorus 2 (like chorus 1)

it's jesus brillant you used to laugh
walking these gorgeous blocks
this top is the place where nobody goes
you just imagine
you just imagine it all


outro - play until the end

G--------18-------------18----------18--------------------------
D--------17-------------17----------17--------------------------
A---------------------------------------------------16-16-16-16-
E--15-15-----15--15-15-------15-15--------15--15-15-------------


G--------21-------------21----------21--------------------------
D--------20-------------20----------20--------------------------
A---------------------------------------------------15-15-15-15-
E--18-18-----18--18-18-------18-18--------18--18-18-------------


end.
Comments