Cure - The Same Deep Water As You Chords & Tabs

 

The Same Deep Water As You Chords & Tabs

Cure Chords & Tabs

Version: 1 Type: Tab 0 ratings
1 star 2 stars 3 stars 4 stars 5 stars
comments

The Same Deep Water As You Tab

   
----------------------------------------------------------------------------
		   THE SAME DEEP WATER AS YOU - The Cure 
----------------------------------------------------------------------------
Tabbed by: yj45m1n

Tuning: standard


--a preety easy song from the cure:--


kiss me goodbye pushing out before i sleep
can't you see i try swimming the same deep
water as you is hard "the shallow drowned lose
less than we" you breathe the strangest twist
upon your lips

 "and we shall be together..."  
e|--------------------------------|
B|--5-----3-----------------------|
c|----5----4-------9--------------|
D|--------------------------------|
A|--------------------------------|
E|--------------------------------|


e|----------------------------------|
B|---5----3-------------------------|
G|-----5----4---5-7-5-4-5-4-0-2-----|
D|----------------------------------|  x4
A|----------------------------------|
E|----------------------------------|

"kiss me goodbye bow your head and join with
me" and face pushed deep rteflections meet
the strangest twist upon your lips and
dissapear the ripples clear and laughing break
against your feet and laughing break the mirror
sweet "so we shall be together..."


  (_____________ x4________________)  so we shall be together...
e|----------------------------------|--------|
B|---5----3-------------------------|--------|
G|-----5----4---5-7-5-4-5-4-0-2-----|--0-2---|
D|----------------------------------|--------| 
A|----------------------------------|--------|
E|----------------------------------|--------|

e|---------------------------------------------------|
B|---------------------------------------------------|
G|-4-5-7-7-7-10-10-10-9---7-5-4-4-4-12-12-14-14------|
D|---------------------------------------------------|
A|---------------------------------------------------|
E|---------------------------------------------------|

e|---------------------------------------------------|
B|---------------------------------------------------|
G|-9-9-9-9-9-7-7-9-2--5-5-5-5-5-4-0-2----------------|
D|---------------------------------------------------|
A|---------------------------------------------------|
E|---------------------------------------------------|


"kiss me goodbye" pushing out before i sleep
it's lower now and slower now the strangest
twist upon your lips but i don't see and i dont
feel but tightly hold up silently my hands
before my fading eyes and in my eyes your
smile 

  the very last thing before i go...
e|----------------------------------|
B|---5----3-------------------------|
G|-----5----4---5-7-5-4-5-4-0-2-----|  x4
D|----------------------------------| 
A|----------------------------------|  
E|----------------------------------|
[ Tab from: http://www.guitartabs.cc/tabs/c/cure/the_same_deep_water_as_you_tab.html ]
i will kiss you i will kiss you i will kiss you forever on nights like this 
e|---------------------------------------------------|
B|---------------------------------------------------|
G|-4-5-7-7-7-10-10-10-9---7-5-4-4-4-12-12-14-14------|
D|---------------------------------------------------|
A|---------------------------------------------------|
E|---------------------------------------------------|

i will kiss you i will kiss you and we shall be together...
e|---------------------------------------------------|
B|---------------------------------------------------|
G|-9-9-9-9-9-7-7-9-2--5-5-5-5-5-4-0-2----------------|
D|---------------------------------------------------|
A|---------------------------------------------------|
E|---------------------------------------------------|

e|---------------------------------------------|
B|---------------------------------------------|
G|4-5-7-7-7-10-10-10-9---7-5-4-4-4-12-12-14-14-|
D|---------------------------------------------|
A|---------------------------------------------|
E|---------------------------------------------|

e|----------------------------------|------------|
B|---10---10---10-12------13-13-12--|------------|
G|-9----9----9-------9--------------|-9-9-9-7-5--|
D|----------------------------------|------------|
A|----------------------------------|------------|
E|----------------------------------|------------|

e|----------------------------------------|
B|----------------------------------------|
G|-5-9-7-5--5-9-7-5-9-7-5-9-7-5-9-7-5-9-7-|
D|----------------------------------------|
A|----------------------------------------|
E|----------------------------------------|

                                                          (_____x2_____)
e|-------------------------------------------|------------|------------|
B|-10-10-10--10-12------12---13-13-13-12-----|------------|------------|
G|-----------------9-------9-------------9-9-|-9-9-9-7-5--|-9-9-9-7-2--|
D|-------------------------------------------|------------|------------|
A|-------------------------------------------|------------|------------|
E|-------------------------------------------|------------|------------|

 (______________x4__________________)
e|----------------------------------|----------------------------------|
B|---5----3-------------------------|----------------------------------|
G|-----5----4---5-7-5-4-5-4-0-2-----|-0-2--0-0-2--0-0------------------|
D|----------------------------------|-----------------2----------------| 
A|----------------------------------|--------------------5-3-2-2-2-----|  
E|----------------------------------|----------------------------------|



| /  slide up
| \  slide down
| h  hammer-on
| p  pull-off
| ~  vibrato
| +  harmonic
| X  Mute note
=============================================================================
Comments